Song name
# A B C D E F G H I J K L M N O P Q R S T U V W X Y Z

Coheed And Cambria - The Velorium Camper I Faint Of Heart tab

Help us improve GuitareTab! Take a short survey!
Tabbed by:Coheedandnofx6
AIM: Warxall0thextime

Tuning: Standard

Hey this tab may not be totally correct but its a little more accurate than the other.
Rythym Guitar #1
e|-------------------------------------------------------------------------|
B|-------------------------------------------------------------------------|
G|---------------------------------------------------------AH*-------------|
D|---9---9--12-12-12-11-------------------------------12-9*-----0-7-0-7-0--|
A|---7-7-7--10-10-10-9--12-9-10-12----9-----10-10-10--10---9*---0-7-0-7-0--|
E|-----0----------------10---------10---10--8--0--8----------10-0-7-0-7-0--|
PM                                                              . . . . .

e|-------------------------------------------------------------------------|
B|-------------------------------------------------------------------------|
G|---------------------------------------------------------AH*-------------|
D|---9---9--12-12-12-11-------------------------------12-9*----------------|
A|---7-7-7--10-10-10-9--12-9-10-12----9-----10-10-10--10---9*--------------|
E|-----0----------------10---------10---10--8--0--8----------10-0-7-10-9-7-|

e|-------------------|
B|-------------------|
G|-------------------|
D|-------------------|
A|-------------------|
E|---9-7-0-----------|

Lead Guitar #2 ::SOLO::
e|---/12-10---------------------------------------------------15-17-15----15----|
B|----------12-10-12-10-8-10-8-7-7-8--------------------15-17----------17----17-|
G|-----------------------------------9-7-7-9-9-7--15/16-------------------------|
D|------------------------------------------------------------------------------|
A|------------------------------------------------------------------------------|
E|------------------------------------------------------------------------------|

e|---15-------------------------------------------------------------------------|
B|------15-14-------------------------------------------------------------------|
G|------------17--17-16-14-16----------16-17------------------------------------|
D|----------------------------17-16/17-------19\--------------------------------|
A|------------------------------------------------------------------------------|
E|------------------------------------------------------------------------------|

PLEASE RATE
Related for The Velorium Camper I Faint Of Heart tab