Song name
# A B C D E F G H I J K L M N O P Q R S T U V W X Y Z

Coheed And Cambria - The Light And The Glass tab

Gtr I (E A D G B E) - 'acous.'
Gtr II (E A D G B E) - 'clean'
Gtr III (E A D G B E) - 'slight dist.'
Gtr IV (E A D G B E) - 'dist.'
Gtr V (E A D G B E) - 'w/ wah'

 Intro
  Slow Rock Q.=45
  (D)                             (Gsus2)
 6/8
  Gtr I
  E E E E E E   S S E E E E S S   E E E E E E   E E E E E E
|-------------|-----------------|-------------|-------------|
|-7-----7-----|-----------------|-------------|-------------|
|---7-----7---|-------0---------|-------------|-------------|
|-----7-----7-|-----4---7-5-4p0-|-----7-----7-|-----7-----0-|
|-5-----5-----|-4h5-------------|---5-----5---|---5-----5---|
|-------------|-----------------|-3-----3-----|-3-----3-----|
|
| Gtr II
| E E E E E E   S S E E E E S S   E E E E E E   E E E E E E
|-------------|-----------------|-------------|-------------|
|-7-----7-----|-----------------|-------------|-------------|
|---7-----7---|-------0---------|-------------|-------------|
|-----7-----7-|-----4---7-5-4p0-|-----7-----7-|-----7-----7-|
|-5-----5-----|-4h5-------------|---5-----5---|---5-----5---|
|-------------|-----------------|-3-----3-----|-3-----3-----|


  (Bm7)                         (D)              (A)
  E E E E E E   S S E E E E E    E E E  E  E E   E E E E E E
|-------------|---------------|----------------|-------------|
|-------0-----|---------0-----|-10-----10------|-------------|
|-2-------2---|-------0-----0-|----0-------0---|-------------|
|---0-------0-|-----7---------|------0-------0-|-----0-----0-|
|-2---2-------|-7h9-------9---|----------------|---0-----0---|
|-------------|---------------|-10-----10-10---|-7-----9-----|
|
| E E E E E E   S S E E E E E    E E E  E  E E   E E E E E E
|-------------|---------------|----------------|-------------|
|-------0-----|---------0-----|-10-----10------|-------------|
|-2-------2---|-------0-------|----0-------0---|-------------|
|---0-------0-|-----7-------7-|------0-------0-|-----0-----0-|
|-2---2-------|-7h9-------9---|----------------|---0-----0---|
|-------------|---------------|-10-----10------|-7-----9-----|


  (D)
   E E  E   E E E    E E  E   E E E
|-----------------|-----------------||
|-10-------10-----|-10-------10-----||
|----9-(9)----9---|----9-(9)----9---||
|---------------0-|---------------0-||
|-----------------|-----------------||
|-10---10---------|-10---10--10-----||
|
|  E E  E   E E E    E E  E   E E E
|-----------------|-----------------||
|-10-------10-----|-10-------10-----||
|----9-(9)----9---|----9-(9)----9---||
|---------------0-|---------------0-||
|-----------------|-----------------||
|-10---10--10-----|-10---10---------||


 Verse
  (D)                             (Gsus2)
  E E E E E E   S S E E E E S S   E E E E E E   E E E E E E
|-------------|-----------------|-------------|--------------|
|-7-----7-----|-----------------|-------------|--------------|
|---7-----7---|-------0---------|-------------|--------------|
|-----7-----7-|-----4---7-5-4p0-|-----7-----7-|-----7-----0--|
|-5-----5-----|-4h5-------------|---5-----5---|---5-----5----|
|-------------|-----------------|-3-----3-----|-3-----3------|
|
| E E E E E E   S S E E E E S S   E E E E E E   E E E E E E
|-------------|-----------------|-------------|--------------|
|-7-----7-----|-----------------|-------------|--------------|
|---7-----7---|-------0---------|-------------|--------------|
|-----7-----7-|-----4---7-5-4p0-|-----7-----7-|-----7-----7--|
|-5-----5-----|-4h5-------------|---5-----5---|---5-----5----|
|-------------|-----------------|-3-----3-----|-3-----3------|


  (Bm7)                         (D)              (A)
  E E E E E E   S S E E E E E    E E E  E  E E   E E E E E E
|-------------|---------------|----------------|-------------|
|-------0-----|---------0-----|-10-----10------|-------------|
|-2-------2---|-------0-----0-|----0-------0---|-------------|
|---0-------0-|-----7---------|------0-------0-|-----0-----0-|
|-2---2-------|-7h9-------9---|----------------|---0-----0---|
|-------------|---------------|-10-----10-10---|-7-----9-----|
|
| E E E E E E   S S E E E E E    E E E  E  E E   E E E E E E
|-------------|---------------|----------------|-------------|
|-------0-----|---------0-----|-10-----10------|-------------|
|-2-------2---|-------0-------|----0-------0---|-------------|
|---0-------0-|-----7-------7-|------0-------0-|-----0-----0-|
|-2---2-------|-7h9-------9---|----------------|---0-----0---|
|-------------|---------------|-10-----10------|-7-----9-----|


  Asus4
   E E  E   E E E    E E  E   E E E
|-----------------|-----------------|
|-10-------10-----|-10-------10-----|
|----9-(9)----9---|----9-(9)----9---|
|---------------0-|---------------0-|
|-----------------|-----------------|
|-10---10---------|-10---10--10-----|
|
|  E E  E   E E E    E E  E   E E E
|-----------------|-----------------|
|-10-------10-----|-10-------10-----|
|----9-(9)----9---|----9-(9)----9---|
|---------------0-|---------------0-|
|-----------------|-----------------|
|-10---10--10-----|-10---10---------|


    (D)                                 (Gsus2)
     E E E  E E E    S S E E  E E S S   E E  E E E  E   E E  E E E E
||----------------|-------------------|---------------|--------------|
||o--7------7-----|-------------------|---------------|--------------|
||-----7------7---|--------0----------|---------------|--------------|
||-------7------7-|------4----7-5-4p0-|------7------7-|------7-----0-|
||o--5------5-----|--4h5--------------|---5------5----|---5------5---|
||----------------|-------------------|-3------3------|-3------3-----|
|
|    E E E  E E E    S S E E  E E S S   E E  E E E  E   E E  E E E E
||----------------|-------------------|---------------|--------------|
||o--7------7-----|-------------------|---------------|--------------|
||-----7------7---|--------0----------|---------------|--------------|
||-------7------7-|------4----7-5-4p0-|------7------7-|------7-----7-|
||o--5------5-----|--4h5--------------|---5------5----|---5------5---|
||----------------|-------------------|-3------3------|-3------3-----|
|
|   Gtr III
|    E E E  E E E    E   E E  E E E     E E  E E E  E   E E  E E E E
||--10---0-10---0-|-10-----0-10---0---|---7------7----|---7----------|
||o----7------7---|------7------7-----|-----10-----10-|-----10---7-8-|
||---7------7-----|--7--------7-------|-7------7------|-7------7-----|
||----------------|-------------------|---------------|--------------|
||o---------------|-------------------|---------------|--------------|
||----------------|-------------------|---------------|--------------|


  (Bm7)                                  (D)                (A)
  E  E E  E  E  E    S S  E E  E  E  E    E  E E  E   E E    E  E E  E  E E
|-----------------|--------------------|------------------|-----------------|
|---------0-------|------------0-------|-10------10-------|-----------------|
|-2----------2----|---------0--------0-|-----0--------0---|-----------------|
|----0----------0-|-------7------------|-------0--------0-|-------0-------0-|
|-2----2----------|--7h9----------9----|------------------|-----0-------0---|
|-----------------|--------------------|-10------10--10---|--7-------9------|
|
| E  E E  E  E  E    S S  E E  E  E  E    E  E E  E   E E    E  E E  E  E E
|-----------------|--------------------|------------------|-----------------|
|---------0-------|------------0-------|-10------10-------|-----------------|
|-2----------2----|---------0----------|-----0--------0---|-----------------|
|----0----------0-|-------7----------7-|-------0--------0-|-------0-------0-|
|-2----2----------|--7h9----------9----|------------------|-----0-------0---|
|-----------------|--------------------|-10------10-------|--7-------9------|
|
| Q.      E  E  E    E    Q    E  E  E    Q.      Q.         Q.      Q.
|-----------------|--------------------|------------------|-----------------|
|-7------10-------|-----------10-------|-10------10-------|---------10------|
|-----------12-11-|-11-----------12-11-|------------------|-12--------------|
|-----------------|------12------------|------------------|-----------------|
|-----------------|--------------------|------------------|-----------------|
|-----------------|--------------------|------------------|-----------------|


  (D)
   E  E  E   E  E E    E  E  E   E  E E
|-------------------|--------------------||
|-10--------10------|-10--------10------o||
|-----9-(9)-----9---|-----9-(9)-----9----||
|-----------------0-|-----------------0--||
|-------------------|-------------------o||
|-10----10----------|-10----10--10-------||
|
|  E  E  E   E  E E    E  E  E   E  E E
|-------------------|--------------------||
|-10--------10------|-10--------10------o||
|-----9-(9)-----9---|-----9-(9)-----9----||
|-----------------0-|-----------------0--||
|-------------------|-------------------o||
|-10----10--10------|-10----10-----------||
|
|  Q.        Q.        Q.        Q.
|-----------10------|-----------10-------||
|-10----------------|-10----------------o||
|-------------------|--------------------||
|-------------------|--------------------||
|-------------------|-------------------o||
|-------------------|--------------------||


   Pre-Chorus
    A5                          G5
    Gtr III
    E E E E E E   E E E E E E   E E E E E E   S S S S E S S S S E
||--------0-----|-------0-----|-------0-----|-----------------------||
||o---2-------2-|---2---------|---3-----3-0-|----------------------o||
||------2---4---|-----2---4-2-|-----0-------|-2p0-------2p0---------||
||--------------|-------------|-------------|-----4-2-0-----4-2-0---||
||o-0-----------|-0-----------|-------------|----------------------o||
||--------------|-------------|-3-----------|-----------------------||
|
|   Gtr IV
|   E E E E E E   E E E E E E   E E E E E E   E   E   E E   E   E
||--------------|-------------|-------------|-----------------------||
||o-------------|-------------|-------------|----------------------o||
||--2-2-2-2-2-2-|-2-2-2-2-2-2-|-------------|-----------------------||
||--2-2-2-2-2-2-|-2-2-2-2-2-2-|-5-5-5-5-5-5-|-5---5---5-5---5---5---||
||o-0-0-0-0-0-0-|-0-0-0-0-0-0-|-5-5-5-5-5-5-|-5---5---5-5---5---5--o||
||--------------|-------------|-3-3-3-3-3-3-|-3---3---3-3---3---3---||


 Chorus Part 1
  Faster Q.=47
  B5          F#m/A#                    G5
  Gtr IV
    PM--------------------------------------------|
  S S S S S S S S S S S S   S S S S S S S S S S S S
|-------------------------|-------------------------|
|-------------------------|-------------------------|
|-4-----------------------|-------------------------|
|-4-4-4-4-4-4-4-4-4-4-4-4-|-4-4-4-4-4-4-------------|
|-2-2-2-2-2-2-0-0-0-0-0-0-|-0-0-0-0-0-0-5-5-5-5-5-5-|
|-------------------------|-5-5-5-5-5-5-3-3-3-3-3-3-|


  B5          F#m/A#                    G5
  PM----------------------------------------------|
  S S S S S S S S S S S S   S S S S S S S S S S S S
|-------------------------|-------------------------|
|-------------------------|-------------------------|
|-------------------------|-------------------------|
|-4-4-4-4-4-4-4-4-4-4-4-4-|-4-4-4-4-4-4-------------|
|-2-2-2-2-2-2-0-0-0-0-0-0-|-0-0-0-0-0-0-5-5-5-5-5-5-|
|-------------------------|-5-5-5-5-5-5-3-3-3-3-3-3-|


  B5          F#m/A#                    G5
    PM------------------|     PM------|   PM------|
  S S S S S S S S S S S S   S S S S S S S S S S S S
|-------------------------|-------------------------|
|-------------------------|-------------------------|
|-4-----------------------|-------------------------|
|-4-4-4-4-4-4-4-4-4-4-4-4-|-4-4-4-4-4-4-5-----------|
|-2-2-2-2-2-2-0-0-0-0-0-0-|-0-0-0-0-0-0-5-5-5-5-5-5-|
|-------------------------|-5-5-5-5-5-5-3-3-3-3-3-3-|


  B5          F#m/A#                    G5
    PM------------------|     PM------|   PM|
  S S S S S S S S S S S S   S S S S S S S S S S S S
|-------------------------|-------------------------||
|-------------------------|-------------------------||
|-4-----------------------|-------------------------||
|-4-4-4-4-4-4-4-4-4-4-4-4-|-4-4-4-4-4-4-5-----5-5-5-||
|-2-2-2-2-2-2-0-0-0-0-0-0-|-0-0-0-0-0-0-5-5-5-5-5-5-||
|-------------------------|-5-5-5-5-5-5-3-3-3-3-3-3-||


 Chorus Part 2
  A Tempo Q.=42
  $
  B5                F#m/A#            G5
  Gtr III
  H.                H.                Q.       Q.        E   Q     Q.
|-----------------|-----------------|------------------|-------------------|
|-----------------|-----------------|------------------|-------------------|
|-4---------------|-6---------------|-7--------7-------|-7---7-----7-------|
|-x---------------|-x---------------|-x--------x-------|-x---x-----x-------|
|-2---------------|-4---------------|-5--------5-------|-5---5-----5-------|
|-----------------|-----------------|------------------|-------------------|
|
| Gtr IV
| S  E E S Q  S S   S  E E S Q  S S   S  E E S Q   S S   S E   E S Q   S S
|-----------------|-----------------|------------------|-------------------|
|-----------------|-----------------|------------------|-------------------|
|-----------------|-----------------|------------------|-------------------|
|-4--4-4-4-4--4-4-|-4--4-4-4-4--4-4-|------------------|-------------------|
|-2--2-2-2-2--2-2-|-0--0-0-0-0--0-0-|-5--5-5-5-5---5-5-|-5-5---5-5-5---5-5-|
|-----------------|-----------------|-3--3-3-3-3---3-3-|-3-3---3-3-3---3-3-|


  B5                F#m/A#
  H.                H.
|-----------------|-----------------|
|-----------------|-----------------|
|-4---------------|-6---------------|
|-x---------------|-x---------------|
|-2---------------|-4---------------|
|-----------------|-----------------|
|
| S  E E S Q  S S   S  E E S Q  S S
|-----------------|-----------------|
|-----------------|-----------------|
|-----------------|-----------------|
|-4--4-4-4-4--4-4-|-4--4-4-4-4--4-4-|
|-2--2-2-2-2--2-2-|-0--0-0-0-0--0-0-|
|-----------------|-----------------|


  G5
                              ~~~~~~~~~~~~~~
  Q.       Q  S S   S    +S  +H         +E
|-----------------|---------------------------||
|-----------------|-7b8==(7)r(7)--------(7)---||
|-7--------7--4-2-|---------------------------||
|-x--------x------|---------------------------||
|-5--------5------|---------------------------||
|-----------------|---------------------------||
|
| S  E E S Q  S S   S     E      E S Q   S  S
|-----------------|---------------------------||
|-----------------|---------------------------||
|-----------------|---------------------------||
|-----------------|---------------------------||
|-5--5-5-5-5--5-5-|-5-----5------5-5-5---5--5-||
|-3--3-3-3-3--3-3-|-3-----3------3-3-3---3--3-||


   Bridge
    Faster Q.=45
    Em7               D
     S  S S  S  S T T  S  S S  S  S T T
||--------------------------------------|
||o-------------------------------------|
||--12-12-x-12-12-x-x-14-14-x-14-14-x-x-|
||---x--x-x--x--x-x-x--x--x-x--x--x-x-x-|
||o-10-10-x-10-10-x-x-12-12-x-12-12-x-x-|
||--------------------------------------|
|
|    S  S S  S  S T T  S  S S  S  S T T
||--------------------------------------|
||o-------------------------------------|
||--------------------------------------|
||---0--0-x--0--0-x-x-------------------|
||o-10-10-x-10-10-x-x--9--9-x--9--9-x-x-|
||---0--0-x--0--0-x-x-10-10-x-10-10-x-x-|


                             To Coda
  C5
   S  S S  S  S T T  S  S S  S  S T T  4x
|--------------------------------------||
|-------------------------------------o||
|-12-12-x-12-12-x-x-12-12-x-12-12-x-x--||
|--x--x-x--x--x-x-x--x--x-x--x--x-x-x--||
|-10-10-x-10-10-x-x-10-10-x-10-10-x-x-o||
|--------------------------------------||
|
|  S  S S  S  S T T  S  S S  S  S T T  4x
|--------------------------------------||
|-------------------------------------o||
|--------------------------------------||
|--------------------------------------||
|-10-10-x-10-10-x-x-10-10-x-10-10-x-x-o||
|--8--8-x--8--8-x-x--8--8-x--8--8-x-x--||


   Interlude
    Faster Q.=47
    A5
    Gtr IV
      PM--------------------------------------------|
    S S S S S S S S S S S S   S S S S S S S S S S S S
||--------------------------|-------------------------|
||o-------------------------|-------------------------|
||--------------------------|-------------------------|
||--------------------------|-------------------------|
||o-7-7-7-7-7-7-7-7-7-7-7-7-|-7-7-7-7-7-7-7-7-7-7-7-7-|
||--5-5-5-5-5-5-5-5-5-5-5-5-|-5-5-5-5-5-5-5-5-5-5-5-5-|


  1.
  C5
    PM--------------------------------------------|
  S S S S S S S S S S S S   S S S S S S S S S S S S
|-------------------------|--------------------------||
|-------------------------|-------------------------o||
|-------------------------|--------------------------||
|-5-5-5-5-5-5-5-5-5-5-5-5-|-5-5-5-5-5-5-5-5-5-5-5-5--||
|-3-3-3-3-3-3-3-3-3-3-3-3-|-3-3-3-3-3-3-3-3-3-3-3-3-o||
|-------------------------|--------------------------||


  2.
  C5
  S S S S +H       +H.
|----------------|--------||
|----------------|--------||
|-------5-(5)----|-(5)----||
|-----5----------|--------||
|-0h3------------|--------||
|----------------|--------||


   Break
    Dsus2
    Gtrs I, II
    S S S S S S S S S S S S   S S S S S S S S S S S S
||------0-----0-----0-----0-|-----0-----0-----0-------|
||o---7-----7-----7-----7---|---7-----7-----7-----7p0-|
||--7-----7-----7-----7-----|-7-----7-----7-----7-----|
||--------------------------|-------------------------|
||o-------------------------|-------------------------|
||--------------------------|-------------------------|
|
|   Gtr III
|   E   E   E   E   E   E     E   E   E   S S S S S S
||------0-----------0-------|-----0-----------7s5-----|
||o---------7-----------7---|---------7---3s5-----7s8-|
||--7-----------7-----------|-7-----------------------|
||--------------------------|-------------------------|
||o-------------------------|-------------------------|
||--------------------------|-------------------------|


  1.,2.,3.
  G5
   S S S S  S S S S  S S S S   S S  S S S S S S  S S S S  4x
|----------------------------|----------------------------||
|----8------8-----8------8---|---8------8-----8------8---o||
|------7------7------7-----7-|------7-----7------7-----0--||
|--0-----0------0------0-----|-0------0-----0------0------||
|----------------------------|---------------------------o||
|----------------------------|----------------------------||
|
|  E   E    E   E    E   E     E    E   E   E    E   E    4x
|-10-------10-------10-------|-----10-----------10--------||
|------8--------8--------8---|-8--------8---7--------7---o||
|----------------------------|----------------------------||
|----------------------------|----------------------------||
|----------------------------|---------------------------o||
|----------------------------|----------------------------||


  4.
  G5                                        N.C.
   S S S S  S S S S  S S S S   S S  S S S S S  S S S E
|----------------------------|-------------------------||
|----8------8-----8------8---|---8------8--------------||
|------7------7------7-----7-|------7-----7------7-6---||
|--0-----0------0------0-----|-0------0-----7--9-----7-||
|----------------------------|-------------------------||
|----------------------------|-------------------------||
|
|  E   E    E   E    E   E     E    E   E   Q.
|-10-------10-------10-------|-----10------------------||
|------8--------8--------8---|-8--------8--------------||
|----------------------------|-------------------------||
|----------------------------|-------------------------||
|----------------------------|-------------------------||
|----------------------------|-------------------------||


   Chorus
    B5          F#m/A#                    G5
    Gtr IV
      PM--------------------------------------------|
    S S S S S S S S S S S S   S S S S S S S S S S S S
||--------------------------|--------------------------||
||o-------------------------|-------------------------o||
||--4-----------------------|--------------------------||
||--4-4-4-4-4-4-4-4-4-4-4-4-|-4-4-4-4-4-4--------------||
||o-2-2-2-2-2-2-0-0-0-0-0-0-|-0-0-0-0-0-0-5-5-5-5-5-5-o||
||--------------------------|-5-5-5-5-5-5-3-3-3-3-3-3--||


  B5          F#m/A#                    G5
    PM------------------|     PM------------------|
  S S S S S S S S S S S S   S S S S S S S S S S S S
|-------------------------|-------------------------|
|-------------------------|-------------------------|
|-4-----------------------|-------------------------|
|-4-4-4-4-4-4-4-4-4-4-4-4-|-4-4-4-4-4-4-------------|
|-2-2-2-2-2-2-0-0-0-0-0-0-|-0-0-0-0-0-0-5-5-5-5-5-5-|
|-------------------------|-5-5-5-5-5-5-3-3-3-3-3-3-|


                                 D.S. al Coda
  B5          A6            A5     G5
    PM------------------|
  S S S S S S S S S S S S   S S Q  S S S   S  +E
|-------------------------|------------------------||
|-------------------------|------------------------||
|-4-----------------------|------------------------||
|-4-4-4-4-4-4-4-4-4-4-4-4-|-2-2----5-5-------------||
|-2-2-2-2-2-2-0-0-0-0-0-0-|-0-0----5-5-------------||
|-------------------------|--------3-3-0-/15-(15)\-||


 Interlude
  Faster Q.=51
  &
  F#5 N.C.    F#5 N.C.      F#5 N.C.    B5
  Gtr IV
  S S S S S S S S S S S S   S S S S S S S S S S S S
|-------------------------|-------------------------|
|-------------------------|-------------------------|
|-------------------------|-------------------------|
|-------------------------|-------------4-4-4-4-4-4-|
|-4-4-0-4-5-0-4-4-0-4-5-0-|-4-4-0-4-5-0-2-2-2-2-2-2-|
|-2-2---------2-2---------|-2-2---------------------|


  F#5  N.C.          F#5    N.C.      F#5    N.C.    B5
  Gtr IV
   S S  S   S   S  S   S  S S S S S     S  S S S S S   S  S S S S S
|-----------------------------------|-------------------------------|
|-----------------------------------|-------------------------------|
|-----------------------------------|-------------------------------|
|-----------------------------------|------------------4--4-4-4-4-4-|
|--4-4--0---4---5--0---4--4-0-4-5-0-|---4--4-0-4-5-0---2--2-2-2-2-2-|
|--2-2-----------------2--2---------|---2--2------------------------|
|
| Gtr V
|                                       ~~~~~~~~~~~~~~~~~~
|  S S +S   S  +S  S   Q.              +Q.            +Q.
|-----------------------------------|-------------------------------|
|-10-9-(9)--------------------------|-------------------------------|
|----------11-(11)-9-/13------------|-(13)-----------(13)-----------|
|-----------------------------------|-------------------------------|
|-----------------------------------|-------------------------------|
|-----------------------------------|-------------------------------|


  F#5  N.C.          F#5   N.C.       F#5    N.C.    B5
   S S  S   S   S  S  S  S  S S S S     S  S S S S S S  S S S S S
|-----------------------------------|-----------------------------|
|-----------------------------------|-----------------------------|
|-----------------------------------|-----------------------------|
|-----------------------------------|----------------4--4-4-4-4-4-|
|--4-4--0---4---5--0--4--4--0-4-5-0-|---4--4-0-4-5-0-2--2-2-2-2-2-|
|--2-2----------------2--2----------|---2--2----------------------|
|
|                                       ~~~~~~~~~~~~~~~~
|  S S +S   S  +S  S  S  S  Q          +Q.           Q.
|-----------------------------------|-----------------------------|
|-10-9-(9)--------------------------|-----------------------------|
|----------11-(11)-9-11s13----------|-----------------------------|
|--------------------------11-------|-(11)-----------9------------|
|-----------------------------------|-----------------------------|
|-----------------------------------|-----------------------------|


  F#5  N.C.          F#5   N.C.       F#5   N.C.    B5
   S S  S   S   S  S   S S S S  S S    S  S S S S S  S  S S S S S
|-----------------------------------|-----------------------------||
|-----------------------------------|-----------------------------||
|-----------------------------------|-----------------------------||
|-----------------------------------|----------------4--4-4-4-4-4-||
|--4-4--0---4---5--0---4-4-0-4--5-0-|--4--4-0-4-5-0--2--2-2-2-2-2-||
|--2-2-----------------2-2----------|--2--2-----------------------||
|
|                                      ~~~~~~~~~~~~~~~~~
|  S S +S   S  +S  S   E.    E.       +Q.           +Q.
|-----------------------------------|-----------------------------||
|-10-9-(9)--------------------------|-----------------------------||
|----------11-(11)-9-/13p====9------|-(9)-----------(9)-----------||
|-----------------------------------|-----------------------------||
|-----------------------------------|-----------------------------||
|-----------------------------------|-----------------------------||


   Breakdown
    A5      Bb5     C5      D5        A5      Bb5     Asus4
   4/4
      PM--|   PM--|   PM--|   PM--|     PM--|   PM--|
    S S S S S S S S S S S S S S S S   S S S S S S S S S S S S S S S S
||----------------------------------|----------------------------------||
||o---------------------------------|---------------------------------o||
||--2-------3-------5-------3-------|-2-------3-------0-0-0-0-0-0-0-0--||
||--2-2-2-2-2-2-2-2-2-2-2-2-2-2-2-2-|-2-2-2-2-2-2-2-2-0-0-0-0-0-0-0-0--||
||o-0-0-0-0-0-0-0-0-0-0-0-0-0-0-0-0-|-0-0-0-0-0-0-0-0-0-0-0-0-0-0-0-0-o||
||----------------------------------|----------------------------------||


 Interlude
  N.C.
  Gtr IV
   S  S  S  S  S      S   S  S  S  S  S  S  S      S   S  S
|-----------------------------------------------------------|
|-----------------------------------------------------------|
|-12-12-12-12-12-----12--12-12-11-11-11-11-11-----11--11-11-|
|--x--x--x--x--x------x---x--x--x--x--x--x--x------x---x--x-|
|-10-10-10-10-10-----10--10-10--9--9--9--9--9------9---9--9-|
|-----------------------------------------------------------|
|
|    Gtr III
|  S  S  S  S  S     +S   E     S  S  S  S  S     +S   E
|-------12---------------12----------12---------------12----|
|----12----12-15b17-(15)----------12----12-15b17-(15)-------|
|-----------------------------------------------------------|
|-----------------------------------------------------------|
|-----------------------------------------------------------|
|-----------------------------------------------------------|


  S  S  S  S  S  S  S  S  S  S  S  S  S  S  S  S
|------------------------------------------------|
|------------------------------------------------|
|-9--9--9--9--9--9--9--9--9--9--9-11-11-11-12----|
|-x--x--x--x--x--x--x--x--x--x--x--x--x--x--x--0-|
|-7--7--7--7--7--7--7--7--7--7--7--9--9--9-10--0-|
|------------------------------------------------|
|
| S  S  S  S  S  S  S  S  S  S  S  S  S  S  S  S
|------12----------------------------------------|
|---12----12-15-12----12-------------------------|
|------------------14----12-14-11-12----11-------|
|------------------------------------14----12-14-|
|------------------------------------------------|
|------------------------------------------------|


  C5
   S    S  S  S  S  S  S  S   S   S  S  S  S  S  S  S
|-----------------------------------------------------|
|-----------------------------------------------------|
|-----------------------------------------------------|
|-----------------------------------------------------|
|-10---10-10-10-10-10-10-10--10--10-10-10-10-10-10-10-|
|--8----8--8--8--8--8--8--8---8---8--8--8--8--8--8--8-|
|
|  Q..                    S  +Q            Q
|-----------------------------------------------------|
|-13---------------------12-(12)----------10----------|
|-----------------------------------------------------|
|-----------------------------------------------------|
|-----------------------------------------------------|
|-----------------------------------------------------|


   S    S  S  S  S  S  S  S   S   S  S  S  S  S  S  S
|-----------------------------------------------------|
|-----------------------------------------------------|
|-----------------------------------------------------|
|-----------------------------------------------------|
|-10---10-10-10-10-10-10-10--10--10-10-10-10-10-10-10-|
|--8----8--8--8--8--8--8--8---8---8--8--8--8--8--8--8-|
|
|  Q..                    S  +H
|-12--------------------------------------------------|
|------------------------15-(15)----------------------|
|-----------------------------------------------------|
|-----------------------------------------------------|
|-----------------------------------------------------|
|-----------------------------------------------------|


  N.C.
   S  S  S  S  S      S   S  S  S  S  S  S  S      S   S  S
|-----------------------------------------------------------|
|-----------------------------------------------------------|
|-12-12-12-12-12-----12--12-12-11-11-11-11-11-----11--11-11-|
|--x--x--x--x--x------x---x--x--x--x--x--x--x------x---x--x-|
|-10-10-10-10-10-----10--10-10--9--9--9--9--9------9---9--9-|
|-----------------------------------------------------------|
|
|  S  S  S  S  S     +S   E     S  S  S  S  S     +S   E
|-------12---------------12----------12---------------12----|
|----12----12-15b17-(15)----------12----12-15b17-(15)-------|
|-----------------------------------------------------------|
|-----------------------------------------------------------|
|-----------------------------------------------------------|
|-----------------------------------------------------------|
|
|  W
|-----------------------------------------------------------|
|-----------------------------------------------------------|
|-----------------------------------------------------------|
|-----------------------------------------------------------|
|-----------------------------------------------------------|
|-----------------------------------------------------------|


  S  S  S  S  S  S  S  S  S      S  S  S  S  S  S       S
|------------------------------------------------------------|
|------------------------------------------------------------|
|-9--9--9--9--9--9--9--9--9------9--9-11-11-11-12------------|
|-x--x--x--x--x--x--x--x--x------x--x--x--x--x--x-------0----|
|-7--7--7--7--7--7--7--7--7------7--7--9--9--9-10-------0----|
|------------------------------------------------------------|
|
| S  S  S  S  S  S  S  S  S      S  S  S  S  S  S       S
|------12----------------------------------------------------|
|---12----12-15-12----12-------------------------------------|
|------------------14----12-----14-11-12----11---------------|
|----------------------------------------14----12------14----|
|------------------------------------------------------------|
|------------------------------------------------------------|
|
|                        Gtr V
|                                               |----3-----|
| H                       Q.                    S  +S      S
|------------------------14b15=================14r(14)p===12-|
|------------------------------------------------------------|
|------------------------------------------------------------|
|------------------------------------------------------------|
|------------------------------------------------------------|
|------------------------------------------------------------|


  C5
   S     S       S    S       S    S       S    S       S    S       S   S  S       S   S  S
|--------------------------------------------------------------------------------------------|
|--------------------------------------------------------------------------------------------|
|--------------------------------------------------------------------------------------------|
|--------------------------------------------------------------------------------------------|
|-10----10------10---10------10---10------10---10------10---10------10--10-10------10--10-10-|
|--8-----8-------8----8-------8----8-------8----8-------8----8-------8---8--8-------8---8--8-|
|
|  Q..                                          S      +Q                   Q
|--------------------------------------------------------------------------------------------|
|-13-------------------------------------------12-----(12)-----------------10----------------|
|--------------------------------------------------------------------------------------------|
|--------------------------------------------------------------------------------------------|
|--------------------------------------------------------------------------------------------|
|--------------------------------------------------------------------------------------------|
|
|  S    +S      +S   +S      +S   +S      +S   +S      +S   +S      +S   S  S      +E.
|-14---(14)b15r(14)-(14)b15r(14)-(14)b15r(14)-(14)b15r(14)-(14)b15r(14)-12-14b15==(14)-------|
|--------------------------------------------------------------------------------------------|
|--------------------------------------------------------------------------------------------|
|--------------------------------------------------------------------------------------------|
|--------------------------------------------------------------------------------------------|
|--------------------------------------------------------------------------------------------|


    S    S  S  S  S  S  S  S   S   S  S  S  S  S  S  S
|------------------------------------------------------|
|------------------------------------------------------|
|------------------------------------------------------|
|------------------------------------------------------|
|--10---10-10-10-10-10-10-10--10--10-10-10-10-10-10-10-|
|---8----8--8--8--8--8--8--8---8---8--8--8--8--8--8--8-|
|
|   Q..                    S  +H
|--12--------------------------------------------------|
|-------------------------15-(15)----------------------|
|------------------------------------------------------|
|------------------------------------------------------|
|------------------------------------------------------|
|------------------------------------------------------|
|
|  +W
|-(14)r------------------------------------------------|
|------------------------------------------------------|
|------------------------------------------------------|
|------------------------------------------------------|
|------------------------------------------------------|
|------------------------------------------------------|


  N.C.
   S  S  S  S  S  S  S  S  S  S  S  S  S      S   S  S
|------------------------------------------------------|
|------------------------------------------------------|
|-12-12-12-12-12-12-12-12-11-11-11-11-11-----11--11-11-|
|--x--x--x--x--x--x--x--x--x--x--x--x--x------x---x--x-|
|-10-10-10-10-10-10-10-10--9--9--9--9--9------9---9--9-|
|------------------------------------------------------|
|
|  S  S  S  S  S  S  E     S  S  S  S  S     +S   E
|-------12----------12----------12---------------12----|
|----12----12-15-16----------12----12-15b17-(15)-------|
|------------------------------------------------------|
|------------------------------------------------------|
|------------------------------------------------------|
|------------------------------------------------------|


  S  S  S  S  S  S  S  S  S  S  S  S  S  S  S  S
|------------------------------------------------|
|------------------------------------------------|
|-9--9--9--9--9--9--9--9--9--9--9-11-11-11-12----|
|-x--x--x--x--x--x--x--x--x--x--x--x--x--x--x--0-|
|-7--7--7--7--7--7--7--7--7--7--7--9--9--9-10--0-|
|------------------------------------------------|
|
| S  S  S  S  S  S  S  S  S  S  S  S  S  S  S  S
|------12----------------------------------------|
|---12----12-15-12----12-------------------------|
|------------------14----12-14-11-12----11-------|
|------------------------------------14----12-14-|
|------------------------------------------------|
|------------------------------------------------|


  C5
   S    S  S  S  S  S  S  S   S   S  S  S  S  S  S  S
|-----------------------------------------------------|
|-----------------------------------------------------|
|-----------------------------------------------------|
|-----------------------------------------------------|
|-10---10-10-10-10-10-10-10--10--10-10-10-10-10-10-10-|
|--8----8--8--8--8--8--8--8---8---8--8--8--8--8--8--8-|
|
|  Q..                    S  +Q            Q
|-----------------------------------------------------|
|-13---------------------12-(12)----------10----------|
|-----------------------------------------------------|
|-----------------------------------------------------|
|-----------------------------------------------------|
|-----------------------------------------------------|


   S    S  S  S  S  S  S  S   S   S  S  S  S  S  S  S
|-----------------------------------------------------|
|-----------------------------------------------------|
|-----------------------------------------------------|
|-----------------------------------------------------|
|-10---10-10-10-10-10-10-10--10--10-10-10-10-10-10-10-|
|--8----8--8--8--8--8--8--8---8---8--8--8--8--8--8--8-|
|
|  Q..                    S  +H
|-12--------------------------------------------------|
|------------------------15-(15)----------------------|
|-----------------------------------------------------|
|-----------------------------------------------------|
|-----------------------------------------------------|
|-----------------------------------------------------|


  N.C.
   S  S  S  S  S      S   S  S  S  S  S  S  S      S   S  S
|-----------------------------------------------------------|
|-----------------------------------------------------------|
|-12-12-12-12-12-----12--12-12-11-11-11-11-11-----11--11-11-|
|--x--x--x--x--x------x---x--x--x--x--x--x--x------x---x--x-|
|-10-10-10-10-10-----10--10-10--9--9--9--9--9------9---9--9-|
|-----------------------------------------------------------|
|
|  S  S  S  S  S     +S   E     S  S  S  S  S     +S   E
|-------12---------------12----------12---------------12----|
|----12----12-15b17-(15)----------12----12-15b17-(15)-------|
|-----------------------------------------------------------|
|-----------------------------------------------------------|
|-----------------------------------------------------------|
|-----------------------------------------------------------|


  S  S  S  S  S  S  S  S  S  S  S  S  S  S  S  S
|------------------------------------------------|
|------------------------------------------------|
|-9--9--9--9--9--9--9--9--9--9--9-11-11-11-12----|
|-x--x--x--x--x--x--x--x--x--x--x--x--x--x--x--0-|
|-7--7--7--7--7--7--7--7--7--7--7--9--9--9-10--0-|
|------------------------------------------------|
|
| S  S  S  S  S  S  S  S  S  S  S  S  S  S  S  S
|------12----------------------------------------|
|---12----12-15-12----12-------------------------|
|------------------14----12-14-11-12----11-------|
|------------------------------------14----12-14-|
|------------------------------------------------|
|------------------------------------------------|


  C5
   S    S  S  S  S  S  S  S   S   S  S  S  S  S  S  S
|-----------------------------------------------------|
|-----------------------------------------------------|
|-----------------------------------------------------|
|-----------------------------------------------------|
|-10---10-10-10-10-10-10-10--10--10-10-10-10-10-10-10-|
|--8----8--8--8--8--8--8--8---8---8--8--8--8--8--8--8-|
|
|  Q..                    S  +Q            Q
|-----------------------------------------------------|
|-13---------------------12-(12)----------10----------|
|-----------------------------------------------------|
|-----------------------------------------------------|
|-----------------------------------------------------|
|-----------------------------------------------------|


   S    S  S  S  S  S  S  S   S   S  S  S  S  S  S  S
|-----------------------------------------------------||
|-----------------------------------------------------||
|-----------------------------------------------------||
|-----------------------------------------------------||
|-10---10-10-10-10-10-10-10--10--10-10-10-10-10-10-10-||
|--8----8--8--8--8--8--8--8---8---8--8--8--8--8--8--8-||
|
|  Q..                    S  +H
|-12--------------------------------------------------||
|------------------------15-(15)----------------------||
|-----------------------------------------------------||
|-----------------------------------------------------||
|-----------------------------------------------------||
|-----------------------------------------------------||


 Outro Part 1
  E5
   S  S  S  S  S      S   S  S  S  S  S  S  S      S   S  S
|-----------------------------------------------------------|
|-----------------------------------------------------------|
|-----------------------------------------------------------|
|-----------------------------------------------------------|
|-14-14-14-14-14-----14--14-14-14-14-14-14-14-----14--14-14-|
|--0--0--0--0--0------0---0--0--0--0--0--0--0------0---0--0-|
|
|  S  S  S  S  S     +S   E     S  S  S  S  S     +S   E
|-------12---------------12----------12---------------12----|
|----12----12-15b17-(15)----------12----12-15b17-(15)-------|
|-----------------------------------------------------------|
|-----------------------------------------------------------|
|-----------------------------------------------------------|
|-----------------------------------------------------------|


  D5
   S  S  S  S  S     S  S  S  S  S  S  S  S  S  S  S
|-----------------------------------------------------|
|-----------------------------------------------------|
|-----------------------------------------------------|
|-----------------------------------------------------|
|-12-12-12-12-12----12-12-12-12-12-12-12-12s14-14-14--|
|-10-10-10-10-10----10-10-10-10-10-10-10-10s12-12-12--|
|
|  S  S  S  S  T  T  S  S  S  S  S  S  S  S  S  S  S
|-------12----------12--------------------------------|
|----12----12-15h17----15-----------------------------|
|-------------------------14-12-14-11-12----11--------|
|----------------------------------------14----12-14--|
|-----------------------------------------------------|
|-----------------------------------------------------|


  C5
   S   S  S  S  S  S     S  S   S   S  S  S  S  S  S  S
|-------------------------------------------------------|
|-------------------------------------------------------|
|-------------------------------------------------------|
|-------------------------------------------------------|
|-10--10-10-10-10-10----10-10--10--10-10-10-10-10-10-10-|
|--8---8--8--8--8--8-----8--8---8---8--8--8--8--8--8--8-|
|
|  Q.                 a  S  S  +Q            S  S  E
|-------------------------------------------------------|
|-13-----------------12h13-12-(12)----------12----------|
|----------------------------------------------14-12----|
|-------------------------------------------------------|
|-------------------------------------------------------|
|-------------------------------------------------------|


   S     S  S  S  S  S  S      S    S   S  S  S  S  S  S  S
|------------------------------------------------------------|
|------------------------------------------------------------|
|------------------------------------------------------------|
|------------------------------------------------------------|
|-10----10-10-10-10-10-10-----10---10--10-10-10-10-10-10-10--|
|--8-----8--8--8--8--8--8------8----8---8--8--8--8--8--8--8--|
|
|  Q.                   S     +S   +H
|------------------------------------------------------------|
|-15b17----------------15b17r(15)-(15)-----------------------|
|------------------------------------------------------------|
|------------------------------------------------------------|
|------------------------------------------------------------|
|------------------------------------------------------------|


  E5
     PM--|     PM---|    PM--|     PM---|
   S S S S  S  S  S S  S S S S  S  S  S S
|-----------------------------------------|
|-----------------------------------------|
|-----------------------------------------|
|-----------------------------------------|
|-14-------14---------14-------14---------|
|--0-0-0-0--0--0--0-0--0-0-0-0--0--0--0-0-|
|
|  Q        S  E.      Q        S  E.
|-----------------------------------------|
|-----------------------------------------|
|----------12p11---------------12p11------|
|-----------------------------------------|
|-----------------------------------------|
|-----------------------------------------|


  D5                                      E5
   S  S  S  S  S  S   S  S  S  S  S  S  S  S   S  S
|---------------------------------------------------|
|---------------------------------------------------|
|---------------------------------------------------|
|---------------------------------------------------|
|-12-12-12-12-12-12--12-12-12-12-12-12-12s14--14-14-|
|-10-10-10-10-10-10--10-10-10-10-10-10-10s12--12-12-|
|
|  Q           S  E.        Q           S  E.
|---------------------------------------------------|
|---------------------------------------------------|
|---------------------------------------------------|
|---------------------------------------------------|
|-------------10p=9--------------------10p=9--------|
|---------------------------------------------------|


  C5
   S  S  S  S  S  S  S  S  S  S  S  S  S  S  S  S
|-------------------------------------------------|
|-------------------------------------------------|
|-------------------------------------------------|
|-------------------------------------------------|
|-10-10-10-10-10-10-10-10-10-10-10-10-10-10-10-10-|
|--8--8--8--8--8--8--8--8--8--8--8--8--8--8--8--8-|
|
|  W
|-------------------------------------------------|
|-------------------------------------------------|
|-------------------------------------------------|
|-------------------------------------------------|
|-------------------------------------------------|
|-------------------------------------------------|


   S  S  S  S  S  S  S  S  S     S  S  S  S  S  S  S
|----------------------------------------------------||
|----------------------------------------------------||
|----------------------------------------------------||
|----------------------------------------------------||
|-10-10-10-10-10-10-10-10-10----10-10-10-10-10-10-10-||
|--8--8--8--8--8--8--8--8--8-----8--8--8--8--8--8--8-||
|
| Gtr V
|                          ~~~~~
|  S  S  S  S  S  S  S  S  H
|----------------------------------------------------||
|----------------------------------------------------||
|----------------------------------------------------||
|-------------------13-14-13b14----------------------||
|----------12-14-15----------------------------------||
|-12-14-15-------------------------------------------||


 Guitar Solo/Outro
     E5
         PM------|        PM--|    PM--|     PM---|
      S  S  S     S     S S S S  S S S S  S  S  S  S
|----------------------------------------------------|
|----------------------------------------------------|
|----------------------------------------------------|
|----------------------------------------------------|
|----14----------------14-------14-------14----------|
|-----0--0--0-----0-----0-0-0-0--0-0-0-0--0--0--0--0-|
|
|  a  S  S  S  a  S  a  H                 S  S  S  S
|----------------------------------------------------|
|----------------------------------------------------|
|----------------------------------------------------|
|-13h14-13----13h14-13h14----------------13h14-13h14-|
|----------15----------------------------------------|
|----------------------------------------------------|


     D5                                               E5
      S  S  S     S  S  S  S  S  S     S  S  S  S      S          S       S
|----------------------------------------------------------------------------|
|----------------------------------------------------------------------------|
|----------------------------------------------------------------------------|
|----------------------------------------------------------------------------|
|----12-12-12----12-12-12-12-12-12----12-12-12-12s====14---------14------14--|
|----10-10-10----10-10-10-10-10-10----10-10-10-10s====12---------12------12--|
|
|                                               |----------3----------|
|  a  S  S  S  a  S  S  S  S  S  Q              E         +E         +E
|----------------------------------------------------------------------------|
|----------------------------------------------------------------------------|
|-------------------------------11-------------------------------------------|
|-13h14-13----13h14-13----13h14-14b16----------14pb16r===(14)b16----(14)-----|
|----------15----------15----------------------------------------------------|
|----------------------------------------------------------------------------|


  C5
   S     S  S  S  S     S  S  S  S  S  S  S  S  S  S     S
|----------------------------------------------------------|
|----------------------------------------------------------|
|----------------------------------------------------------|
|----------------------------------------------------------|
|-10----10-10-10-10----10-10-10-10-10-10-10-10-10-10----10-|
|--8-----8--8--8--8-----8--8--8--8--8--8--8--8--8--8-----8-|
|
|  Q              Q              S  S  E     E     E
|----------------------------------------------------------|
|----------------------------------------------------------|
|----------------------------------------------------------|
|-13b14----------13b14----------------------------13b14----|
|-------------------------------14-15-14----12-------------|
|----------------------------------------------------------|


   S     S  S  S  S  S  S  S  S  S  S  S  S  S  S  S
|----------------------------------------------------|
|----------------------------------------------------|
|----------------------------------------------------|
|----------------------------------------------------|
|-10----10-10-10-10-10-10-10-10-10-10-10-10-10-10-10-|
|--8-----8--8--8--8--8--8--8--8--8--8--8--8--8--8--8-|
|
|  Q              S  S  S  S  S  S  S  S  S  S  S  S
|----------------------------------------------------|
|----------------------------------------------------|
|-------------------------------------------11----11-|
|-13b14-------------------13-14-13----13-14----14----|
|----------------14-15-14----------15----------------|
|----------------------------------------------------|


  E5
            PM---------------|                 PM------|      PM--|    PM--|
   S        S        S        S        S       S  S    S   S  S S S  S S S S
|----------------------------------------------------------------------------|
|----------------------------------------------------------------------------|
|----------------------------------------------------------------------------|
|----------------------------------------------------------------------------|
|-14----------------------------------14------------------14--------14-------|
|--0--------0--------0--------0--------0-------0--0----0---0--0-0-0--0-0-0-0-|
|
|  |--3--|  |--3--|  |--3--|  |--3--|  |--3--|
|  T  T  T  T  T  T  T  T  T  T  T  T  T  T  T S  E       +H
|----------------------------------------------------------------------------|
|----------12h13h15p13p12----------------------------------------------------|
|-11h12h14----------------14p12p11---------------14b16---(14)----------------|
|-------------------------------------13h14p13-------------------------------|
|----------------------------------15----------------------------------------|
|----------------------------------------------------------------------------|


  D5                                                                E5
   S     S     S  S     S     S  S  S     S     S     S  S     S     S     S  S
|----------------------------------------------------------------------------------|
|----------------------------------------------------------------------------------|
|----------------------------------------------------------------------------------|
|----------------------------------------------------------------------------------|
|-12----12----12-12----12----12-12-12----12----12----12-12----12s===14----14-14----|
|-10----10----10-10----10----10-10-10----10----10----10-10----10s===12----12-12----|
|
|  S     E        T  T  E.          T  T  S     E        T  T  S     E        T  T
|----------------------------------------------------------------------------------|
|----------------------------------------------------------------------------------|
|-14b16-14b16----14-12-14b16-------14-12-14b16-14b16----14-12-14b16-14b16----14-12-|
|----------------------------------------------------------------------------------|
|----------------------------------------------------------------------------------|
|----------------------------------------------------------------------------------|


  C5
   S     S  S  S     S     S  S  S     S     S     S  S     S     S     S        S
|-------------------------------------------------------------------------------------|
|-------------------------------------------------------------------------------------|
|-------------------------------------------------------------------------------------|
|-------------------------------------------------------------------------------------|
|-10----10-10-10----10----10-10-10----10----10----10-10----10----10----10-------10----|
|--8-----8--8--8-----8-----8--8--8-----8-----8-----8--8-----8-----8-----8--------8----|
|
|  E.          T  T  E.          T  T  T  T  E        T  T  T  T  T  T  T     T  T  T
|-------------------------------------------------------------------------------------|
|-15b17-------15-13----------------------13-------------------13----------------------|
|-------------------14b16-------14-12-15----14b16----14-12-14----14-14-14b16-12-12-12-|
|-------------------------------------------------------------------------------------|
|-------------------------------------------------------------------------------------|
|-------------------------------------------------------------------------------------|


   S      S         S  S      S         S  S      S      S      S         S  S      S         S  S      S
|-----------------------------------------------------------------------------------------------------------|
|-----------------------------------------------------------------------------------------------------------|
|-----------------------------------------------------------------------------------------------------------|
|-----------------------------------------------------------------------------------------------------------|
|-10-----10--------10-10-----10--------10-10-----10-----10-----10--------10-10-----10--------10-10-----10---|
|--8------8---------8--8------8---------8--8------8------8------8---------8--8------8---------8--8------8---|
|
|  S.        S.        S.        S.        S      S      S.        S.        S.        S.        S      S
|-----------------------------------------------------------------------------------------------------------|
|-----------------------------------------------------------------------------------------------------------|
|-14pb16r===14pb16r===14pb16r===14pb16r===14pb16r14pb16r14pb16r===14pb16r===14pb16r===14pb16r===14pb16r14---|
|-----------------------------------------------------------------------------------------------------------|
|-----------------------------------------------------------------------------------------------------------|
|-----------------------------------------------------------------------------------------------------------|


  E5
        PM--|    PM--|     PM---|        PM--|
   S    S S S  S S S S  S  S  S  S  S    S S S
|----------------------------------------------|
|----------------------------------------------|
|----------------------------------------------|
|----------------------------------------------|
|-14----------14-------14----------14----------|
|--0----0-0-0--0-0-0-0--0--0--0--0--0----0-0-0-|
|
|  H                    S  S  S  S  Q
|-17-------------------------------------------|
|-20b22----------------------------------------|
|----------------------------------------------|
|-------------------------------14-------------|
|-------------------------14-15----15b17-------|
|----------------------------------------------|


  D5                                                                            E5
   S     S     S     S     S     S     S     S     S     S     S     S     S     S     S     S
|----------------------------------------------------------------------------------------------|
|----------------------------------------------------------------------------------------------|
|----------------------------------------------------------------------------------------------|
|----------------------------------------------------------------------------------------------|
|-12----12----12----12----12----12----12----12----12----12----12----12----12s===14----14----14-|
|-10----10----10----10----10----10----10----10----10----10----10----10----10s===12----12----12-|
|
|  T  T  T  T  T  T  T  T  T  T  T  T  T  T  T  T  T  T  T  T  T  T  T  T  T  T  T  T  E
|----------------------------------------------------------------------------------------------|
|----------------------------------------------------------------------------------------------|
|-11-12-11----11-12-11----11-12-11----11-12-11----11-12-11----------11-12----11-12-14-14b16----|
|----------12----------12----------12----------12----------14-12-14-------14-------------------|
|----------------------------------------------------------------------------------------------|
|----------------------------------------------------------------------------------------------|


  C5
   S      S  S      S      S      S  S      S      S      S  S      S      S      S  S      S
|-------------------------------------------------------------------------------------------------|
|-------------------------------------------------------------------------------------------------|
|-------------------------------------------------------------------------------------------------|
|-------------------------------------------------------------------------------------------------|
|-10-----10-10-----10-----10-----10-10-----10-----10-----10-10-----10-----10-----10-10-----10-----|
|--8------8--8------8------8------8--8------8------8------8--8------8------8------8--8------8-----|
|
|            \0.5/  \0.5/  \0.5/     \0.5/  \0.5/  \0.5/     \0.5/  \0.5/  \0.5/     \0.5/  \0.5/
|  E         S      S      E         S      S      E         S      S      E         S      S
|-------------------------------------------------------------------------------------------------|
|-------------------------------------------------------------------------------------------------|
|-------------------------------------------------------------------------------------------------|
|-13b14=====13-----13-----13--------13-----13-----13--------13-----13-----13--------13-----13r----|
|-------------------------------------------------------------------------------------------------|
|-------------------------------------------------------------------------------------------------|


   S      S  S      S      S      S  S      S      S     S  S   S     S     S     S      S
|--------------------------------------------------------------------------------------------|
|--------------------------------------------------------------------------------------------|
|--------------------------------------------------------------------------------------------|
|--------------------------------------------------------------------------------------------|
|-10-----10-10-----10-----10-----10-10-----10-----10----10-10--10----10----10----10-----10---|
|--8------8--8------8------8------8--8------8------8-----8--8---8-----8-----8-----8------8---|
|
|            \0.5/  \0.5/  \0.5/     \0.5/  \0.5/
|  E         S      S      E         S      S      E        S.     T  T  S     T  T  S.
|--------------------------------------------------------------------------------------------|
|--------------------------------------------------------------------------------------------|
|----------------------------------------------------------11--------11-12-------12-14-------|
|-13b14=====13-----13-----13--------13-----13r----13b14-----------13----------14-------------|
|--------------------------------------------------------------------------------------------|
|--------------------------------------------------------------------------------------------|


  E5
        PM---------|       PM------|       PM------|          PM---------|
   S    S     S    S     S S  S    S     S S  S    S     S    S     S    S
|-----------------------------------------------------------------------------|
|-----------------------------------------------------------------------------|
|-----------------------------------------------------------------------------|
|-----------------------------------------------------------------------------|
|-14--------------------14--------------14--------------14--------------------|
|--0----0-----0----0-----0-0--0----0-----0-0--0----0-----0----0-----0----0----|
|
|  |---3---|  |---3---|       |---3---|       |---3---|  |---3---|  |---3---|
|  S  S    S  S  S    S  E    S  S    S  E    S  S    S  S  S    S  S  S    S
|---------12-12-12---12-12-----------12-12-----------12-12-12---12-12-12---12-|
|-10h12----------------------10h12-----------10h12----------------------------|
|-----------------------------------------------------------------------------|
|-----------------------------------------------------------------------------|
|-----------------------------------------------------------------------------|
|-----------------------------------------------------------------------------|


  D5                                     E5
   S  S  S  S  S  S  S  S  S  S  S  S  S  S  S  S
|---------------------------------------------------|
|---------------------------------------------------|
|---------------------------------------------------|
|---------------------------------------------------|
|-12-12-12-12-12-12-12-12-12-12-12-12-12s14-14-14---|
|-10-10-10-10-10-10-10-10-10-10-10-10-10s12-12-12---|
|
|  S  S  S  S  S  S  S  S  S  S  S  S  S  S  S  S
|---------------------------------------------------|
|---------------------------------------------------|
|-12----12-14-12----12-14-12----12-14-12----12-14---|
|----14----------14----------14----------14---------|
|---------------------------------------------------|
|---------------------------------------------------|


  C5
   S     S  S     S     S     S  S     S     S     S  S     S     S     S  S     S
|-------------------------------------------------------------------------------------|
|-------------------------------------------------------------------------------------|
|-------------------------------------------------------------------------------------|
|-------------------------------------------------------------------------------------|
|-10----10-10----10----10----10-10----10----10----10-10----10----10----10-10----10----|
|--8-----8--8-----8-----8-----8--8-----8-----8-----8--8-----8-----8-----8--8-----8----|
|
|  E        T  T  T  T  E        T  T  T  T  E        T  T  T  T  E        T  T  T  T
|-------------------------------------------------------------------------------------|
|-------------------------------------------------------------------------------------|
|----------14-------14----------14-------14----------14-------14----------14-------14-|
|-17b19-------17-14----17b19-------17-14----17b19-------17-14----17b19-------17-14----|
|-------------------------------------------------------------------------------------|
|-------------------------------------------------------------------------------------|


   S     S  S     S     S     S  S     S     S     S  S  S  S  S  S  S
|------------------------------------------------------------------------|
|------------------------------------------------------------------------|
|------------------------------------------------------------------------|
|------------------------------------------------------------------------|
|-10----10-10----10----10----10-10----10----10----10-10-10-10-10-10-10---|
|--8-----8--8-----8-----8-----8--8-----8-----8-----8--8--8--8--8--8--8---|
|
|  E        T  T  T  T  E        T  T  T  T  H
|-------------------------------------------15b17------------------------|
|-------------------------------------------15b17------------------------|
|----------14-------14----------14-------14------------------------------|
|-17b19-------17-14----17b19-------17-14---------------------------------|
|------------------------------------------------------------------------|
|------------------------------------------------------------------------|


  E5
         PM----------|        PM----------|        PM----------|        PM----------|
   S     S        S  S  S     S        S  S  S     S        S  S  S     S        S  S
|-------------------------------------------------------------------------------------|
|-------------------------------------------------------------------------------------|
|-------------------------------------------------------------------------------------|
|-------------------------------------------------------------------------------------|
|-14-------------------14-------------------14-------------------14-------------------|
|--0-----0--------0--0--0-----0--------0--0--0-----0--------0--0--0-----0--------0--0-|
|
|  E         a   +E     E         a   +E     E         a   +E     E         a   +E
|-------------------------------------------------------------------------------------|
|-------------------------------------------------------------------------------------|
|-------------------------------------------------------------------------------------|
|-12b14====(12)r(12)---12b14====(12)r(12)---12b14====(12)r(12)---12b14====(12)r(12)---|
|-------------------------------------------------------------------------------------|
|-------------------------------------------------------------------------------------|


  D5                                                                          E5
   S      S        S   S  S      S        S   S  S      S        S   S  S      S        S   S
|---------------------------------------------------------------------------------------------|
|---------------------------------------------------------------------------------------------|
|---------------------------------------------------------------------------------------------|
|---------------------------------------------------------------------------------------------|
|-12-----12-------12--12-12-----12-------12--12-12-----12-------12--12-12s====14-------14--14-|
|-10-----10-------10--10-10-----10-------10--10-10-----10-------10--10-10s====12-------12--12-|
|
|  E          a   +E      E          a   +E      E          a   +E      E          a   +E
|---------------------------------------------------------------------------------------------|
|---------------------------------------------------------------------------------------------|
|---------------------------------------------------------------------------------------------|
|-12b14=====(12)r(12)----12b14=====(12)r(12)----12b14=====(12)r(12)----12b14=====(12)r(12)----|
|---------------------------------------------------------------------------------------------|
|---------------------------------------------------------------------------------------------|


  C5
   S  S  S  S  S  S  S  S  S  S  S  S  S  S  S  S
|-------------------------------------------------|
|-------------------------------------------------|
|-------------------------------------------------|
|-------------------------------------------------|
|-10-10-10-10-10-10-10-10-10-10-10-10-10-10-10-10-|
|--8--8--8--8--8--8--8--8--8--8--8--8--8--8--8--8-|
|
|  W
|-------------------------------------------------|
|-------------------------------------------------|
|-------------------------------------------------|
|-------------------------------------------------|
|-------------------------------------------------|
|-------------------------------------------------|


                           >
   S  S  S  S  S  S  S  S  S  S  S  S  S  S  S  S
|-------------------------------------------------|
|-------------------------------------------------|
|-------------------------------------------------|
|-------------------------------------------------|
|-10-10-10-10-10-10-10-10-10-10-10-10-10-10-10-10-|
|--8--8--8--8--8--8--8--8--8--8--8--8--8--8--8--8-|
|
|  W
|-------------------------------------------------|
|-------------------------------------------------|
|-------------------------------------------------|
|-------------------------------------------------|
|-------------------------------------------------|
|-------------------------------------------------|


  Wx10
|---------*|
|---------*|
|---------*|
|---------*|
|---------*|
|---------*|


Duration Legend
---------------
W - whole; H - half; Q - quarter; E - 8th; S - 16th; T - 32nd; X - 64th; a - acciaccatura
+ - note tied to previous; . - note dotted; .. - note double dotted
Uncapitalized letters represent notes that are staccato (1/2 duration)
Irregular groupings are notated above the duration line
Duration letters will always appear directly above the note/fret number it represents the
duration for.  Duration letters with no fret number below them represent rests.  Multi-
bar rests are notated in the form Wxn, where n is the number of bars to rest for.  Low
melody durations appear below the staff

Tablature Legend
----------------
 h   - hammer-on
 p   - pull-off
 b   - bend
 pb  - pre-bend
 r   - bend release (if no number after the r, then release immediately)
 /\  - slide into or out of (from/to "nowhere")
 s   - legato slide
 S   - shift slide
  - natural harmonic
[n]  - artificial harmonic
n(n) - tapped harmonic
 ~   - vibrato
 tr  - trill
 T   - tap
 TP  - trem. picking
 PM  - palm muting
\n/  - tremolo bar dip; n = amount to dip
 \n  - tremolo bar down
 n/  - tremolo bar up
/n\  - tremolo bar inverted dip
 =   - hold bend; also acts as connecting device for hammers/pulls
 <>  - volume swell (louder/softer)
 x   - on rhythm slash represents muted slash
 o   - on rhythm slash represents single note slash

Misc Legend
-----------
 |  - bar
||  - double bar
||o - repeat start
o|| - repeat end
*|  - double bar (ending)
 :  - bar (freetime)
 $  - Segno
 &  - Coda
Tempo markers -  = BPM(8/16=s8/s16), where s8 = swing 8ths, s16 = swing 16ths


Tap to rate this tab
 
# A B C D E F G H I J K L M N O P Q R S T U V W X Y Z