Guitaretab - guitar tabs
Song name
# A B C D E F G H I J K L M N O P Q R S T U V W X Y Z

Coheed And Cambria - A Company Calls For Epilogue tab

First tab but this is about atleast 90% correct, the tempo of this song isn't very fast.
This is a beautifull song, hope you enjoy it as much as i do... This is the first half
of the song:
[ Tab from: http://www.guitaretab.com/c/coheed-and-cambria/58484.html ]
e-2-----2-------------------------------------------------------------------|
B---3-----3--------------------------------------------------0--------------|
G-----2-----2-----------2---------2-----2-----2-----2--2-------2--------2-0-|
D-0-----0----------4-5----5-4---0-----0-----0-----0------0-------0--2h4-----|
A--------------4h5-----------------------------------------2----------------|
E-----------------------------3-----3-----3-----3---------------------------|


e-------5------5-------------------5-0---5-0---5-0---5-0----|
B-----------------------------------------------------------|
G-4---------------------------------------------------------|
D---4-5---5-0----5-0----------------------------------------|
E---------------------2-0-5-4-0-5--5-----5-----5-----5------|
A-----------------------------------------------------------|
Related for A Company Calls For Epilogue tab
A Company Calls For Epilogue chords by Coheed And Cambria