Song name
# A B C D E F G H I J K L M N O P Q R S T U V W X Y Z

Coheed And Cambria - Run Like Hell Acoustic tab

As all you faithful Coheed and Cambria fans like I already know (or should) that
Claudio's side project used to explain more of the story, The Prize Fighter Inferno,
does this. But for the jist of the fans that just really like their music they might
have downloaded this with the name Coheed and Cambria and never knew of The Prize
Fighter Inferno. So that's why it's here.

As for the tab, it's a pretty easy song. The only thing I had trouble tabbing was the
second part of the chorus. But I believe I gots her. Well enjoy.

Part 1
|--x----x----x--x--x--x--|
|--x----x----x--x--x--x--|
|--x----x----x--x--x--x--|
|--x----x----x--x--x--x--|
|--x----x----x--x--x--x--|
|--x----x----x--x--x--x--|

Part 2
|-------------------------------|
|-------------------------------|
|-------------------------------|
|----------------------4--------|
|--0-5-5-5-5-5-5-5-5-5---5-4-3--|
|-------------------------------|x8
Don't play that 0 the first time.

Part 3
|-----------------------------------------|
|-----------------------------------------|
|----7-7-5---7-7-5---------7-7-5-0-7-7-5--|
|--0-5-5-3-0-5-5-3---5-3-0-5-5-3-0-5-5-3--|
|--0-5-5-3-0-5-5-3-0-----0-5-5-3-0-5-5-3--|
|-----------------------------------------|

|---------------------------|
|---------------------------|
|---------------------------|
|---------------------------|
|--5-3-0--------------------|
|--------5-4-3-0-3-0-3-3-0--|x4
Some of those 3's on the low E string are bent alittle, but not all the way to sounded 

like a 4, kind of half way.

Part 4
|-------|
|-------|
|-------|
|--0-0--|
|--0-0--|
|-------|

|-----------------------|
|-----------------------|
|--------------6--------|
|--0-7-7-7-7-7-4-7-6-5--|
|--0-5-5-5-5-5---5-4-3--|
|-----------------------|x4

Part 5
|-------------------------------|
|-------------------------------|
|-------------------------------|
|--0-7-7-7-7-7-7-7-7-7-4--------|
|--0-5-5-5-5-5-5-5-5-5---5-4-3--|
|-------------------------------|x4
Palm mute those D5's. Those 57's for you retarted people, just playing of course.

Part 3
|-----------------------------------------|
|-----------------------------------------|
|----7-7-5---7-7-5---------7-7-5-0-7-7-5--|
|--0-5-5-3-0-5-5-3---5-3-0-5-5-3-0-5-5-3--|
|--0-5-5-3-0-5-5-3-0-----0-5-5-3-0-5-5-3--|
|-----------------------------------------|

|---------------------------|
|---------------------------|
|---------------------------|
|---------------------------|
|--5-3-0--------------------|
|--------5-4-3-0-3-0-3-3-0--|x4
Some of those 3's on the low E string are bent alittle, but not all the way to sounded 

like a 4, kind of half way.

Part 6
|-------|
|-------|
|-------|
|--0-0--|
|--0-0--|
|-------|

|-----------------------|
|-----------------------|
|--10---8----7--5--8----|
|--10---8----7--5--8----|
|--8----6----5--3--6----|
|-----------------------|x2
Strum those.

|-------------|
|-------------|
|--7--5--8----|
|--7--5--8----|
|--5--3--6----|
|-------------|
Strum those too.

Part 7
|----------------------|
|----------------------|
|--7----10---5----3----|
|--7----10---5----1----|
|--5----8----3----1----|
|--5----8----3----1----|x4
Strum these as well.

|-----|
|-----|
|--7--|
|--7--|
|--5--|
|--5--|
Tap to rate this tab
# A B C D E F G H I J K L M N O P Q R S T U V W X Y Z