Song name
# A B C D E F G H I J K L M N O P Q R S T U V W X Y Z

Coheed And Cambria - Ten Speed Of Gods Blood And Burial tab

Help us improve GuitareTab! Take a short survey!
|-------------------|-------------------|
|-------------------|-------------------|
|-19\---------------|-------------------|
|-----------0-2-5-4-|-(4)-----4-5-4-0-2-|
|-----0-2-3---------|-------------------|
|-------------------|-------------------|

|-----------------------|-----------------------|
|-----------------------|---------------7-------|
|---------2-4-4-[5]b7---|-4-4-[5]b7---4-----/7--|
|-(2)-------------------|-----------------------|
|-----------------------|-----------------------|
|-----------------------|-----------------------|


|----------------------------------------|----------------------------------|
|----------10-(10)b12r(10)-(10)b13==(10)r|=(10)-(10)-(10)r-10p8h12p8p7-10-7-|
|-(7)\-----------------------------------|----------------------------------|
|----------------------------------------|----------------------------------|
|----------------------------------------|----------------------------------|
|----------------------------------------|----------------------------------|

|
|--------------------|-----------------------|
|-(7)-----5\-----3-5-|-3-2--3\----/12-14-14--|
|--------------------|-----------------------|
|--------------------|-----------------------|
|--------------------|-----------------------|
|--------------------|-----------------------|


|---------------12-14----12-|--9-10-----9---------------|
|-12---------12-------15----|-------12----10-12--8--[8]-|
|---------14----------------|---------------------------|
|---------------------------|---------------------------|
|---------------------------|---------------------------|
|---------------------------|---------------------------|
|
|
|---------------------------|---------------------------|
|-12------------------------|---------------------------|
|---------------18-19-16-18-|-14-16----14---------------|
|---------16-17-------------|-------17----16-17-14-[14]-|
|---------------------------|---------------------------|
|---------------------------|---------------------------|


|
|
|-----------------------------|-----------------------|
|--(8)--7--5--[7]----5-3---5--|--(5)-3-2-3-2----------|
|-----------------------------|--------------4---4b6r=|
|-----------------------------|-----------------------|
|-----------------------------|-----------------------|
|-----------------------------|-----------------------|
|
|
|-----------------------------|-----------------------|
|-----------------------------|-----------------------|
|-----------------------------|-----------------------|
|-(14)-12-11-[12]---11-9-[11]-|-(11)-9-7-9-7-5---5b7r=|
|-----------------------------|-----------------------|
|-----------------------------|-----------------------|


|
|
|-----------19b22====19---19---|-19---19---19---19r==(19)---17h|
|------------------------------|-------------------------------|
|-(4)--------------------------|-------------------------------|
|------------------------------|-------------------------------|
|------------------------------|-------------------------------|
|------------------------------|-------------------------------|
|
|
|-----------19b22====19---19---|-19---19---19---19r==(19)------|
|------------------------------|-------------------------------|
|------------------------------|-------------------------------|
|-(5)--------------------------|-------------------------------|
|------------------------------|-------------------------------|
|------------------------------|-------------------------------|


|
|
|----19----(19)\-------------|---------------/17---(17)s15--||
|------------------/15-------|-/17--------------------------||
|----------------------------|------------------------------||
|----------------------------|------------------------------||
|----------------------------|------------------------------||
|----------------------------|------------------------------||
|
|
|-17h19----(19)\-------------|---------------/17---(17)s15--||
|------------------/15-------|-/17--------------------------||
|----------------------------|------------------------------||
|----------------------------|------------------------------||
|----------------------------|------------------------------||
|----------------------------|------------------------------||
Related for Ten Speed Of Gods Blood And Burial tab