Song name
# A B C D E F G H I J K L M N O P Q R S T U V W X Y Z

Coheed And Cambria - The Willing Well Iv The Final Cut tab

Well here is the intro.
i'll put the rest later.
im sure this is 99%

Tabed by Andre D.(Dre1) & Gil O.

PLease comment and rate.

Questions?
www.myspace.com/xxxprojectjill


E-----------------------------|
B-----9-7---------------------|
G---8-----10-8-6--------------| 4x
D-----------------------------|
A-----------------------------|
E-----------------------------|


E----------B------------------------|
B----------10-9---------------------|
G-----8-11------8-------------------| 4x
D---9-------------------------------|
A-----------------------------------|
E-----------------------------------|


E---9--------------------------|
B-----11-10-9------------------|
G-------------11-8----8--------| 4x
D------------------11----------|
A------------------------------|
E------------------------------|


E----------B------------------------|
B----------10-9---------------------|
G-----8-11------8-------------------| 3x
D---9-------------------------------|
A-----------------------------------|
E-----------------------------------|
Tap to rate this tab
# A B C D E F G H I J K L M N O P Q R S T U V W X Y Z