Song name
# A B C D E F G H I J K L M N O P Q R S T U V W X Y Z

Coheed And Cambria - Cassiopia tab

Help us improve GuitareTab! Take a short survey!
This song isn't all that hard play. its very simple. For the best sound here is a
list of the nessesary guitar accessories.

.reverb

.Delay

.Distortion

You don't have to have all of them. the only one required is distortion.
Thats all you need to do to play this song, unless you like to improvise.
tuning is(Db,Ab,db,Gb,Bb,eb).


Intro
e----------------------------------------------------------------------------|
b----------------------------------------------------------------------------|
g----6---9--9-6-9-6-----------------6----9--6--------------------------------|
d--7---7-------------7--6--7------7---7--------7--6--7-----------------------|
a-----------------------7-----0-------------------7-----0--------------------|
D-----------------------------0-------------------------0--------------------|
  Why.....
e----------------------------------------------------------------------------|
b----------------------------------------------------------------------------|
g----6----9--6--------------------6----9--6----------------------------------|
d--7---7--------7--6--7---------7---7-------7--6--7--------------------------|
a------------------7-----0---------------------7------0----------------------|
D------------------------0----------------------------0----------------------|
Wide open....
e----------------------------------------------------------------------------|
b----------------------------------------------------------------------------|
g----6---9--6---------------------6---9--6-----------------------------------|
d--7---7-------7--6--7----------7---7------7--6--7---------------------------|
a-----------------7--------0------------------7-------0----------------------|
D--------------------------0--------------------------0----------------------|

e----------------------------------------------------------------------------|
b----------------------------------------------------------------------------|
g----6---9--6---------------------6---9--6-----------------------------------|
d--7---7-------7--6--7----------7---7------7--6--7---------------------------|
a-----------------7--------0------------------7-------0----------------------|
D--------------------------0--------------------------0----------------------|

Verse x4   Cassio....
e----------------------------------------------------------------------------|
b----------------------------------------------------------------------------|
g----6---9--6------------------6----9--6-------------------------------------|
d--7---7-------7--6--7-------7---7--------7--6--7----------------------------|
a-----------------7------0-------------------7------0------------------------|
D------------------------0--------------------------0------------------------|

Prechorus x2     Hold me close....
e-------10-10-10-------------10-10-10----------10-10-10------10-10-10--------|
b-------10-10-10-------------10-10-10----------10-10-10------10-10-10--------|
g----------------------------------------------------------------------------|
d--5----------------5-------------------5---------------5--------------------|
a--5----------------5-------------------5---------------5--------------------|
D--5----------------5-------------------5---------------5--------------------|

Chorus x2   Cassio......
e----------------------------------------------------------------------------|
b----------------------------------------------------------------------------|
g----------------------------------------------------------------------------|
d--0---2---2---2---2---4----0-----0----0----0---2---2---2---2---4------------|
a--0---2---2---2---2---4----0-----0----0----0---2---2---2---2---4------------|
D--0---2---2---2---2---4----0-----0----0----0---2---2---2---2---4------------|

phase 1 x2   Never let me go......
e----------------------------------------------------------------------------|
b----------------------------------------------------------------------------|
g----------------------------------------------------------------------------|
d-5---5-5-5--5-5-5--5-5-5--7-7-7-7-7---5---5-5-5--5-5-5--5-5-5--7-7-7-7-7----|
a-5---5-5-5--5-5-5--5-5-5--7-7-7-7-7---5---5-5-5--5-5-5--5-5-5--7-7-7-7-7----|
D-5---5-5-5--5-5-5--5-5-5--7-7-7-7-7---5---5-5-5--5-5-5--5-5-5--7-7-7-7-7----|

I don't know the harmonics in the last part yet.

outro  Bye  cassio....
e--14-15-14----17-------------------------14-15-14----17---------------------|
b------------------15--------------------------------------15----------------|
g----------------------------------------------------------------------------|
d----------------------------------------------------------------------------|
a----------------------------------------------------------------------------|
D----------------------------------------------------------------------------|


if there is anything i am missing form what i have, or if someone knows the harmonics
riff email me at   metalguy177@yahoo.com please tell me if I am missing anything.
Related for Cassiopia tab