Song name
# A B C D E F G H I J K L M N O P Q R S T U V W X Y Z

Coheed And Cambria - A Favour House Atlantic Acoustic tab

From the 99 X live FM cover..

^- Stroke up
* - Stroke down

Intro- 

guitar 1.

  
     * ^ ^ * ^                                    
e----0-0-0-0-0--------------------|
B----0-0-0-0-0--------------------|
G----6-6-6-6-6----4h6-------------|  x 3
D----6-6-6-6-6--------4~~~-4------|
A--4-------------------------7-6--|
E---------------------------------|

Guitar 2-

e------------------------------------------------------------------12-11--11---------------------|
B-----12h14-14^-12-14----12---------------12-14-14^-14p12----12---------12-----------------------|
G11h13----------------13----11-13---11-13-----------------13----13-----------13-11-9-11-9-6-9-4/6|
D------------------------------------------------------------------------------------------------|
A------------------------------------------------------------------------------------------------|
E------------------------------------------------------------------------------------------------|

Verse
Guitar 1
   * * ^ ^ * ^ ^ * ^ ^ * ^     * ^ ^ * ^       * ^ ^ * ^  
e--0---------------------------0--------------0----------|
B--0---------------------------0--------------0----------|
G--2---------------------------4--------------6----------|
D--2---------------------------4--------------6----------|
A--0-----------------------0h2-2----------0h4-4----------|
E--0-----------------------------------------------------|
Tap to rate this tab
# A B C D E F G H I J K L M N O P Q R S T U V W X Y Z