Song name
# A B C D E F G H I J K L M N O P Q R S T U V W X Y Z

Coheed And Cambria - The Willing Well I Fuel For The Feeding End tab

-------------------------------------------------------------------------------
The Willing Well i: Fuel For the Feeding World - Coheed and Cambria
-------------------------------------------------------------------------------
Tabbed by: Simon Collier (Maefan_001 - What was I thinking when I made that name?)
Email: icantbelieveitsnotliver@hotmail.co.uk

Tuning: Flat (Eb Ab Db Gb Bb eb)

e|------------------------------------------------------------------------------------|
B|----10------------------------------7-8-7-----7-7-----------------------------------|
G|-----x-----7-----2-------------7--9-------9-9---------------------------------------|
D|-----7-----7-----2------------------------------------------------------------------|
A|-----------5-----0------------------------------------------------------------------|
E|------------------------------------------------------------------------------------|

(x2)


e|---------10--------------------------------------------|
B|-----/12----12----------------7--8--10--8--7--8--7-----|
G|---------------11-----------------------------------7--|
D|------------------12-----------------------------------|
A|-------------------------------------------------------|
E|-------------------------------------------------------|

e|-------------------------------------------------------------------|
B|-----------------------------------------10-12----10h12p10-----*7--|
G|------------------------4h6h7-7-4/----11-------11----------11\7----|
D|--------------0h2h4h5/7--------------------------------------------|
A|-------0h2h4h5-----------------------------------------------------|
E|-------------------------------------------------------------------|

e|---17----14h15p14---------------14-------|
B|------15----------15-15-17-17/-15----15--|
G|-----------------------------------------|
D|-----------------------------------------|
A|-----------------------------------------|
E|-----------------------------------------|

e|----------------------------------------------|
B|----------------------------------------------|
G|---------------*7-*7--------------------------|
D|---------4h*5h*7-----9----4b5r4---------------|
A|----2h4h5-------------------------7-5--7-7-5--|
E|----------------------------------------------|


|b/r bend/release
| *  pinch harmonic
| /  slide up
| \  slide down
| h  hammer-on
| p  pull-off
| ~  vibrato
| +  harmonic
| x  Mute note
===============================================================================
Tap to rate this tab
# A B C D E F G H I J K L M N O P Q R S T U V W X Y Z