Song name
# A B C D E F G H I J K L M N O P Q R S T U V W X Y Z

Coheed And Cambria - Shabutie - Disciples Anthem tab

-------------------------------------------------------------------------------
			DISCIPLE'S ANTHEM - Shabutie
-------------------------------------------------------------------------------
Tabbed by:Rafa88offspring	
Email: rafa88offspring@hotmail.com

Tuning: standard

This song is from when Coheed and Cambria were called Shabutie, if you want 
to you could add me on MSN to discuss it or whatever, feel free to do it...

Intro/verse 1

You can figure out the strumming and timing...
e|-palm muted------|
B|-----------------|
G|-12--------------|
D|-12-----11----5--|
A|-10-----11----5--|
E|--------9-----3--|



second part of verse "I'll taste you to stain..."
e|----------------------|
B|----------------------|
G|----------------------|
D|-----4---------5------|
A|---4---4-----5---5----|
E|-2-------0-3-------0--|


"Leave me sour, stiff aroused"
e|-------------------------|
B|-------------------------|
G|-11----11/12----9/11-----|
D|----12-------10------12--| x2
A|-------------------------|
E|-------------------------|

e|--------|
B|--------|
G|--------|
D|-9---5--|
A|-9---5--|
E|-7---7--|


"Farewell Nikki!"
   palm muted
e|-------------|
B|-------------|
G|--------12---|
D|-12-----12---|
A|-12-----10---| each "Farewell nikki" you change chord
E|-10----------|


"Could have sworn that you'd run..."
e|----------------------------------------------|
B|----------------------------------------------|
G|----------------------------------------------|
D|----------------------------------------------|
A|-12-12-10/12-12-12-12-10/12---9-9--9----5555--|
E|-10-10--8/10-10-10-10--8/10---7-7--7----3333--|


"Shabutie, Shabutie, I'm your disciple"
e|------------------|
B|------------------|
G|------------------|
D|------------------|
A|-12---11---9---7--|
E|-10---9----7---5--|


| /  slide up
| \  slide down
| h  hammer-on
| p  pull-off
| ~  vibrato
| +  harmonic
| x  Mute note
===============================================================================
Tap to rate this tab
 
# A B C D E F G H I J K L M N O P Q R S T U V W X Y Z