Song name
# A B C D E F G H I J K L M N O P Q R S T U V W X Y Z

Coheed And Cambria - Shabutie - Star Cecil tab

-------------------------------------------------------------------------------
			STAR CECIL - Shabutie
-------------------------------------------------------------------------------
Tabbed by:Rafa88offspring	
Email: rafa88offspring@hotmail.com

Tuning: standard (EADgbe)

This song is from when Coheed and Cambria were called Shabutie. If you want 
to, you could add me on MSN to discuss it or whatever, feel free to do it...

It may have a few errors, but it is a difficult song to tab, cause the
bass blends so much with the guitars, that it's hard to distinguish one
from the other.

Intro/verse
e|--------------------------------------8--8\5--------------------------|
B|-8-------8-8/10-------10/12-------12-----8\5-7---------------5--------|
G|---7---7--------0---0-------0---0----------------4---7---------7------|
D|-----5------------0-----------0------------------------5---5-----5----|
A|---------------------------------------------------------5---------5--|
E|----------------------------------------------------------------------|

e|----------------------|
B|-------------------9+-|
G|----------------------|
D|---------5------------|
A|-----5-5---5h7p5------|
E|-5-7------------------|

sometimes he plays it like this in the verse

e|--------------------------------------8-------8--8\5--------|
B|-8-------8-8/10-------10/12-------12----8---8----8\5-7------|
G|---7---7--------0---0-------0---0---------0--------------4--|
D|-----5------------0-----------0-----------------------------|
A|------------------------------------------------------------|
E|------------------------------------------------------------|

e|-------------------|
B|----------5--------|
G|--7---------7------|
D|----5---5-----5----|
A|------5---------5--|
E|-------------------|

e|----------------------|
B|-------------------9+-|
G|----------------------|
D|---------5------------|
A|-----5-5---5h7p5------|
E|-5-7------------------|

the last time you just strum this chord at the end (over the hills...)

e|----|
B|-8--|
G|-7--|
D|-5--|
A|----|
E|----|

Chorus
"and now maybe"
 find out the strumming 
e|-----------------------|
B|-----------------------|
G|-7-------5---7--9------|
D|-7---5---5---x--x--10--|
A|-5---5---3---5--7--10--|
E|-----3-------------8---|

"Star Cecil Where did you go tonight?"
e|--------------------|
B|--------------------|
G|--------------------|
D|-10--9--7--5--4--2--|
A|-10--9--7--5--4--2--|
E|-8---7--5--3--2--0--|

e|---------------------------------------------|
B|-99999-9\7-77-7/10-1010-10/12-1212-12/15-15--|
G|-88888-8\6-66-6/9--9-9---9/11-1111-11/14-14--|
D|---------------------------------------------|
A|---------------------------------------------|
E|---------------------------------------------|

then you play this chord, and continue with the past riff
e|--------|
B|--------|
G|--------|
D|-44444--|
A|-44444--|
E|-22222--|

"Ooh yeah sore, we taste"
e|-----------------|
B|-----------------|
G|-9---------------|
D|-9--9--10--5--7--|
A|-7--9--10--5--7--|
E|----7--8---3--5--|


| /  slide up
| \  slide down
| h  hammer-on
| p  pull-off
| ~  vibrato
| +  harmonic
| x  Mute note
===============================================================================
Tap to rate this tab
# A B C D E F G H I J K L M N O P Q R S T U V W X Y Z