Song name
# A B C D E F G H I J K L M N O P Q R S T U V W X Y Z

Coheed And Cambria - Shabutie - Goodnight tab

-------------------------------------------------------------------------------
			 GOODNIGHT - Shabutie
-------------------------------------------------------------------------------
Tabbed by:Rafa88
Email:rafa88offspring@hotmail.com

Tuning: standard

This song is from when Coheed and Cambria were called Shabutie, if you want 
to you could add me on MSN to discuss it or whatever, feel free to do it...

Intro/Verse
e|---2---2---2---2---3---3---5---5--|
B|-3---3---3---3---2---2---2---2----|
G|----------------------------------|
D|----------------------------------|
A|----------------------------------|
E|----------------------------------|

"Luke, boy, did you bring the x-wing fighter?"
e|---------------------------------------------------|
B|---------------------------------------------------|
G|-777------------7777777777777777----------6--7--9--|
D|-777-5555555555-7777777777777777--555555--6--7--9--|
A|-555-5555555555-5555555555555555--555555--4--5--7--|
E|-----3333333333-------------------333333-----------|

"I'd give it up, if were you"
e|---------------------------------------|
B|---------------------------------------|
G|----------999999/11\7777777-6666-------|
D|-777-6666-999999/11\7777777-6666-9999--|
A|-777-6666-777777/9-\5555555-4444-9999--|
E|-555-4444------------------------7777--|

just after that
e|-------------|
B|-------------|
G|----------7--|
D|----------7--|
A|-7777-666-5--|
E|-5555-444----|

e|----------------------------------------------------|
B|----------------------------------------------------|
G|-99-1111-777777-555------------------------------7--|
D|-99-1111-777777-555-999-77777-4-5555-3--7777-666-7--|
A|-77-9-9--555555-333-999-77777-4-5555-3--7777-666-5--|
E|--------------------777-55555-2-3333-1--5555-444----|


| /  slide up
| \  slide down
| h  hammer-on
| p  pull-off
| ~  vibrato
| +  harmonic
| x  Mute note
===============================================================================
Tap to rate this tab
# A B C D E F G H I J K L M N O P Q R S T U V W X Y Z