Guitaretab - guitar tabs
Song name
# A B C D E F G H I J K L M N O P Q R S T U V W X Y Z

Coheed And Cambria - Kinderwhore tab

By-Francis
Location - Carmelite, Lucena City
Cp #- 09109712432
E-add- f_sario@yahoo.com  (friendster)add me!
School- Sacred Heart College


tuning : E flat


*pickscrape into 1st riff*
riff 1: (both guitars)
|-----------------------------------------------------------------|
|-----------------------------------------------------------------|
|-----------------------------------------------------------------|
|-----------------------------------------------------------------|
|-----4---5h7p5p4-----4---5h7p5p4-----4---5h7p5p4-----4---5h7p5p4-|
|-0h2---0---------0h2---0---------0h2---0---------0h2---0---------|

riff 2:
guitar 1 (last time)
|------------------------------|---------------------|
|------------------------------|---------------------|
|------------------------------|---------------------|
|----------------x-x-x-x-x-x-x-|---------------------|
|---4---5-4---4--x-x-x-x-x-x-x-|---4---5-4---2-------|
|-0-2-0-3-2-0-2--x-x-x-x-x-x-x-|-0-2-0-3-2-0-0-------|
pm. . . . . . 
guitar 2
|------------------------------|---------------------|
|------------------------------|---------------------|
|------------------------------|---------------------|
|----------------7-6-----------|---------------------|
|---4---5-4---4--5-4---7---4-5-|---4---5-4---2-------|
|-0-2-0-3-2-0-2------0-5-0-2-3-|-0-2-0-3-2-0-0-------|
pm. . . . . .

riff 3:
guitar 1 (x2)
|---------------------------------|---------------------------|
|----------twiddly---------twiddly|---------------------------|
|-----------noise-----------noise-|---------------------------|
|---------------------------------|---------------------------|
|-2-2---2-2-------2-2---2-2-------|-4---2-4-2-4---2-4-2-4--5--|
|-0-0---0-0-------0-0---0-0-------|-2---0-2-0-2---0-2-0-2--3--|
pm. . . . . . . . . . . . . . 
[ Tab from: http://www.guitaretab.com/c/coheed-and-cambria/88192.html ]
guitar 2 (x2)
|---------------------------------|---------------------------|
|---------------------------------|---------------------------|
|---------------------------------|---------------------------|
|---------------------------------|---------------------------|
|-2-2---2-2-------2-2---2-2-------|-4---2-4-2-4---2-4-2-4--5--|
|-0-0---0-0-------0-0---0-0-------|-2---0-2-0-2---0-2-0-2--3--|
pm. . . . . . . . . . . . . . 

then both guitars finnish riff on
|----------------------------|
|----------------------------|
|----------------------------|
|----------------------------|
|-4---2-4-2-4---2--4-3-------|
|-2---0-2-0-2---0--2-1-------|
pm . . . .

riff 4:
guitar 2 lets the note ring while guitar 1 plays this:
|-------------------------------------------------------------|
|-------------------0-0-0-0-0-0-0-----------------------------|
|-------------------3-3-3-3-3-3-3-----------------------------|
|---4-----5-4---4-------------------4-----5-4---4-------------|
|---2-----3-2---2-------------------2-----3-2---2-5-5-5-4-4-4-|
|-0-----0-----0-------------------0-----0-----0---3-3-3-2-2-2-|
pm. . . . . . . . . . . .
then both guitars play it

riff 5: (i think only guitar 1 plays this)
|------------------------------------------------|
|------------------------------------------------|
|---------------------------------2--------------|
|---4-----5-4---5-x-x-x---4-----4----4--5--4---5-|
|---2-----3-2---3-x-x-x---2-----2------------3---|
|-0-----0-----0---x-x-x-0-----0------------------|
pm. . . . .

riff 6:
both guitars
|-----------------------------------------------------------------|
|-----------------------------------------------------------------|
|-----------------------------------------------------------------|
|-9-9-9-9-9-9-9-9-9-9-9-9-9-9-9-9-7-7-7-7-7-7-7-7-7-7-7-7-7-7-7-7-|
|-9-9-9-9-9-9-9-9-9-9-9-9-9-9-9-9-7-7-7-7-7-7-7-7-7-7-7-7-7-7-7-7-|
|-7-7-7-7-7-7-7-7-7-7-7-7-7-7-7-7-5-5-5-5-5-5-5-5-5-5-5-5-5-5-5-5-|
Related for Kinderwhore tab
Kinderwhore chords by Coheed And Cambria