Song name
# A B C D E F G H I J K L M N O P Q R S T U V W X Y Z

Coheed And Cambria - The Reaping tab

"The Reaping"
Coheed and Cambria
tabbed by Larry Jones

The other tab was correct, but not really complete.  Here is the song with all the 
fingerpicked by Claudio.


e|-----------------------------------------------------------------------|
B|-----------------------------------------------------------------------|
G|-------0-----------0------------------7~-7~----------------0-0---------|
D|-----0---0-------0---0------------5----------5---------3-------3-2/7---|
A|---8-------8---8-------8/-----0h3---3----------3/--0h1---1-------------|
D|-0-----------0---------------------------------------------------------|
The above riff repeats the whole song.


Piano Riff/Vocal Melody (45 sec)
e|-13~---10~---------13-12-10-12~------12-10--------------|
B|------------10~-----------------13~---------13-10~------|
G|--------------------------------------------------------|
D|--------------------------------------------------------|
A|--------------------------------------------------------|
D|--------------------------------------------------------|

e|----------------------------------------------------------------------1-|
B|----------------------------------------------------------------------3-|
G|-------0-----------0------------------7~-7~----------------0-0--------2-|
D|-----0---0-------0---0------------5----------5---------3-------3-2p0--0-|
A|---8-------8---8-------8/-----0h3---3----------3/--0h1---1------------0-|
D|-0-----------0--------------------------------------------------------0-|
Tap to rate this tab
# A B C D E F G H I J K L M N O P Q R S T U V W X Y Z