Song name
# A B C D E F G H I J K L M N O P Q R S T U V W X Y Z

Colbie Caillat - The Little Things tab

------------------------------------------------|
--2/4---7----------------2/4---7----------------|
-----------6---4---4/6-------------6---4--3-----|
------------------------------------------------|
------------------------------------------------|
------------------------------------------------|

------------------------------------------------|
--2/4---7----------------2/4---7----------------|
-----------6---4---4/6-------------6---4--3-----|
------------------------------------------------|
------------------------------------------------|
------------------------------------------------|
Tap to rate this tab
 
# A B C D E F G H I J K L M N O P Q R S T U V W X Y Z