Song name
# A B C D E F G H I J K L M N O P Q R S T U V W X Y Z

Colbie Caillat - Magic tab

Standard tuning
Capo on 3rd Fret
h - Hammer on
Down Strum - D
Up Strum - U

Tabbed By HappyDonut

Intro:                                             
    D                                                D U D
e|--3------------------------------------------------3-3-3|
b|--3---------3---------------------------3----------3-3-3|
g|--0---0--2-----00-0h2-0-----0----------------------0-0-0|
d|--0---------------------0h2---------0-2---2--------2-2-2|
a|--0------------------------------------------------3-3-3|
E|--3------------------------------------------------0-0-0|

    D
e|--3--------------------------------------3---2----------|
b|--3---------3----------------------------------3--------|
g|--0---0--2----00-0h2-0-----0---------------0------------|
d|--0--------------------0h2--------0--2------------------|
a|--0-----------------------------------------------------|
E|--3-----------------------------------------------------|
Tap to rate this tab
 
# A B C D E F G H I J K L M N O P Q R S T U V W X Y Z