Song name
# A B C D E F G H I J K L M N O P Q R S T U V W X Y Z

Colbie Caillat - Stay With Me tab

this song has many different parts to it but all of it follows the same two chords


Comes in with the piano part
e--3-----3-----2-----2-----0-----0-----0-----0-----|
B--------------------------------------------------|
G--------------------------------------------------|
D--------------------------------------------------|
A--------------------------------------------------|
E--------------------------------------------------|

Main Guitar part
e--------------------------------------------------|
B-----3-----3-----3-----3-----3-----3-----3-----3--|
G-----4-----4-----4-----4-----4-----4-----4-----4--|
D--------------------------------------------------|
A--------------------------3-----------3-----------|
E--3-----------3-----------------------------------|

Backing Chords
e--3-----------------------0-----------------------|
B--3-----------------------1-----------------------|
G--0-----------------------0-----------------------|
D--0-----------------------2-----------------------|
A--2-----------------------3-----------------------|
E--3-----------------------------------------------|
Tap to rate this tab
 
# A B C D E F G H I J K L M N O P Q R S T U V W X Y Z