Colbie Caillat - Magic tab

Magic
Colbie Caillat

Capo 3

Listen to the song carefully to get the rythm and timing and such. The first two 
notes are for that break thing in the song's intro.

   G
e|-----|------------------------------------|
B|-3---|--3------------3-----3--------------|
G|-----|--------0h2h4-----0----0h2-------0--|
D|-----|-----------------------------0h2----|
A|-----|------------------------------------|
E|---3-|-----3---------------------3--------|

    Cadd9
e|---3---2----------------|
B|-----3---3--------------|
G|--------------0h2p0h2p0-|
D|------------------------|
A|-3----------------------|
E|------------------------|

enjoy
Tap to rate this tab
 
# A B C D E F G H I J K L M N O P Q R S T U V W X Y Z