Song name
# A B C D E F G H I J K L M N O P Q R S T U V W X Y Z

Colbie Caillat - Breakeven Fast Car chords

Highlighted       Show chord diagrams
Breakeven/Fast Car-Colbie Caillat

VERSE PATTERN
e|--------------|---------------|---------------|----------------|
B|0h1--3--------|8-----7--------|0h1--3------- -|8-----7---------|
G|0----0--------|0-----7--------|0----0------ --|0-----7---------|
D|--------------|------0--------|---------------|------0---------|
A|3-------------|7--------------|3--------------|7---------------|
E|-----3--------|---------------|-----3---------|----------------|

e|---------------|----------------|---------------|---------------|
B|0h1--3---------|8---7-----------|0h1--3---------|8-----7--------|
G|0----0---------|0---7-----------|0----0---------|0-----7--------|
D|---------------|----0-----------|---------------|------0--------|
A|3--------------|7---------------|3--------------|7--------------|
E|-----3---------|----------------|-----3---------|---------------|
VERSE 1
I'm still alive but I'm barely breathing
Just prayed to a god that I don't believe in
Cause I got time while he got freedom 
Cause when a heart breaks no it don't break even
His best days will be some of my worst
He finally met a girl that's gonna put him first
While I'm wide awake he's not trouble sleeping
Cause when a heart breaks no it don't break even, even no..

CHORUS
[Cadd9]   [G)                    [D]                  [Em7]
What am I supposed to do when the best part of me was always you and,
[Cadd9]   [G)                    [D]                  [Em7]
What am I supposed to say when I'm all choked up and you're okay yah
[Cadd9][G)    [D][Em7]
I'm falling to pieces
[Cadd9][G)    [D][Em7]
I'm falling to pieces

[Em7] [G/F#] [G]  [Cadd9]

VERSE 2
[Em7]                [G/F#] [G]  [Cadd9]
They say bad things happen for a reason
[Em7]                [G/F#] [G]  [Cadd9]
But no wise words gonna stop the bleedin'
[Em7]                [G/F#] [G]  [Cadd9]
Cause he's moved on while I'm still grieving
[Em7]                [G/F#] [G]  [Cadd9]
Cause when a heart breaks no it don't break even, even no..


CHORUS
[Cadd9]   [G)                    [D]                  [Em7]
What am I supposed to do when the best part of me was always you and,
[Cadd9]   [G)                    [D]                  [Em7]
What am I supposed to say when I'm all choked up and you're okay yah
[Cadd9][G)    [D][Em7]
I'm falling to pieces
[Cadd9][G)    [D][Em7]
I'm falling to pieces


[Em7] [G/F#] [G]  [Cadd9] x2
BRIDGE
[Em7]                                [G/F#] 
Oh, you got her heart and my heart and none of the pain,
[G]                    [Cadd9]
You took your suitcase, I took the blame
[Em7]                                [G/F#]   [G]  
Now I'm trying to look back on what little remains, oh
[Cadd9]
Cause you left me with no love and no love to my name.

e|--------------|---------------|---------------|----------------|
B|0h1--3--------|8-----7--------|0h1--3------- -|8-----7---------|
G|0----0--------|0-----7--------|0----0------ --|0-----7---------|
D|--------------|------0--------|---------------|------0---------|
A|3-------------|7--------------|3--------------|7---------------|
E|-----3--------|---------------|-----3---------|----------------|

e|---------------|----------------|---------------|---------------|
B|0h1--3---------|8---7-----------|0h1--3---------|8-----7--------|
G|0----0---------|0---7-----------|0----0---------|0-----7--------|
D|---------------|----0-----------|---------------|------0--------|
A|3--------------|7---------------|3--------------|7--------------|
E|-----3---------|----------------|-----3---------|---------------|
I'm still alive but I'm barely breathing
Just prayed to a god that I don't believe in
Cause I got time while he got freedom 
Cause when a heart breaks no it don't break
[G]                                  [D]  [Cadd9]
No it don't break, no it don't break even no


CHORUS
[Cadd9]   [G)                    [D]                  [Em7]
What am I supposed to do when the best part of me was always you and,
[Cadd9]   [G)                    [D]                  [Em7]
What am I supposed to say when I'm all choked up and you're okay yah
[Cadd9][G)    [D][Em7]
I'm falling to pieces
[Cadd9][G)    [D][Em7]
I'm falling to pieces

[Em7]                [G/F#] [G]  [Cadd9]
They say bad things happen for a reason
[Em7]                [G/F#] [G]  [Cadd9]
But no wise words gonna stop the bleedin'
[Em7]                [G/F#] [G]  [Cadd9]
Cause he's moved on while I'm still grieving
[Em7]                [G/F#] [G]  [Cadd9]
Cause when a heart breaks no it don't break even, even no..

e|--------------|---------------|---------------|----------------|
B|0h1--3--------|8-----7--------|0h1--3------- -|8-----7---------|
G|0----0--------|0-----7--------|0----0------ --|0-----7---------|
D|--------------|------0--------|---------------|------0---------|
A|3-------------|7--------------|3--------------|7---------------|
E|-----3--------|---------------|-----3---------|----------------|
Mmhm.. 
e|---------------|----------------|---------------|---------------|
B|0h1--3---------|8---7-----------|0h1--3---------|8-----7--------|
G|0----0---------|0---7-----------|0----0---------|0-----7--------|
D|---------------|----0-----------|---------------|------0--------|
A|3--------------|7---------------|3--------------|7--------------|
E|-----3---------|----------------|-----3---------|---------------|


You've got a fast car
But is it fast enough so we can fly away
We've got a make a decision,
Leave tonight or live and die this way

[End on G]

THE END
Tap to rate this tab
 
# A B C D E F G H I J K L M N O P Q R S T U V W X Y Z