Song name
# A B C D E F G H I J K L M N O P Q R S T U V W X Y Z

Colby Odonis - What You Got chords

Highlighted       Show chord diagrams
http://www.youtube.com/watch?v=qT5bau5RUSM

What You Got (Live Acoustic, from Youtube)

The whole song is just these 4 chords repeated, you can finger pick them or strum them, 
on your style.

Fm7   B#m7  C#/Dbmaj7  D#m7

Chords:

    Fm7    B#m7   C#/Dbmaj7   D#m7
e|---8------8--------4---------6-----|
B|---9------8--------6---------6-----|
G|---8------8--------5---------6-----|
D|---10-----8--------6---------8-----|
A|---8------10-------4---------6-----|
E|---x------8--------x---------x-----|

or you can play the B#m7 and the D#m7 like this:


    B#m7    D#m7
e|---x------6---|
B|---x------6---|
G|---8------6---|
D|---8------x---|
A|---x------6---|
E|---8------x---|

Enjoy!

~KL
Tap to rate this tab
 
# A B C D E F G H I J K L M N O P Q R S T U V W X Y Z