Guitaretab - guitar tabs
Song name
# A B C D E F G H I J K L M N O P Q R S T U V W X Y Z
Home / C / Colchon / Canon tab

Colchon - Canon tab

      el tiempo que             estuvo aqui
    PM.......................      PM.......................
e|-----------------------------|------------------------------|
B|-----------------------------|------------------------------|
G|7---7-7-7-7-7-7-7-7-7-7-7-7--|------------------------------|
D|7---7-7-7-7-7-7-7-7-7-7-7-7--|-7---7-7-7-7-7-7-7-7-7-7-7-7--|
A|5---5-5-5-5-5-5-5-5-5-5-5-5--|-7---7-7-7-7-7-7-7-7-7-7-7-7--|
E|-----------------------------|-5---5-5-5-5-5-5-5-5-5-5-5-5--|


      tengo que aceptar             que me hizo cambiar

     PM.......................
e|------------------------------|-----------------------|
B|------------------------------|-----------------------|
G|------------------------------|-----------------------|
D|-9---9-9-9-9-9-9-9-9-9-9-9-9--|----12-11-9-11-9-7-----|
A|-9---9-9-9-9-9-9-9-9-9-9-9-9--|----12-11-9-11-9-7-----|
E|-7---7-7-7-7-7-7-7-7-7-7-7-7--|----10-9--7-9--7-5-----|


y nunca  pense volver a empezar    partiendo de nada
e|--------------------------------------------------|
B|--------------------------------------------------|
G|--7---|---------|-------------|-------------------|
D|--7---|--7------|-------9-----|--12-11-9-11-9-7---|
A|--5---|--7------|-------9-----|--12-11-9-11-9-7---|
E|------|--5------|-------7-----|--10-9--7-9--7-5---|


(Parte rapidilla)x 2
e|-------------------/-------------------|
B|-------------------/-------------------|
G|--7-6-7--666--7-6--/--9-7-9--777--9-7--|
D|--7-6-7--666--7-6--/--9-7-9--777--9-7--|
A|--5-4-5--444--5-4--/--7-5-7--555--7-5--|
E|-------------------/-------------------|

e|------------------------/-----------------------|
B|------------------------/-----------------------|
G|---11-9-11--999--11-9---/----12-11-9-11-9-7-----|
D|---11-9-11--999--11-9---/----12-11-9-11-9-7-----|
A|---9--7-9---777--9--7---/----10-9--7-9--7-5-----|
E|------------------------/-----------------------|


   hoy me di cuenta lo triste q es un día sin ti
e|-------------------------------------------------------|
B|-------------------------------------------------------|
G|-7-6----7/6/7-----7-6------7-6---------7-6-7-7/9-76----|
D|-----7--------7-------7-5------7-7/9-------------------|
A|-------------------------------------------------------|
E|-------------------------------------------------------|



       Y que no  te puedo olvidar
e|--------------------------------------|
B|--------------------------------------|
G|7-6 6-7-6-7-6-7-6---9-7-6---6-7-6---6-|
D|--------------------------7-------7---|
A|--------------------------------------|
E|--------------------------------------|

e|------------------------------------|
B|------------------------------------|
G|--7-6-6-7-6-7-6-7-6---7/9-7-6-7-9-6-|
D|------------------------------------|
A|------------------------------------|
E|------------------------------------|


      Y siento        que tu estas tan lejos
e|-----------------------------|-----------------------------------|
B|-----------------------------|-----------------------------------|
G|-77-77--|-99-99--|--11-11-11-11-11-11-11-11-11-11-11-11-11-11-11-|
D|-77-77--|-99-99--|--11-11-11-11-11-11-11-11-11-11-11-11-11-11-11-|
A|-55-55--|-77-77--|--9--9--9--9--9--9--9--9--9--9--9--9--9--9--9--|
E|--------|--------|-----------------------------------------------|


     no se que sentir
e|--------------------|
B|--------------------|
G|----12-11-9-11-9-7--|
D|----12-11-9-11-9-7--|
A|----10-9--7-9--7-5--|
E|--------------------|


      mi corazon
e|------------------------------|------------------------------|
B|------------------------------|------------------------------|
G|-7---7-7-7-7-7-7-7-7-7-7-7-7--|------------------------------|
D|-7---7-7-7-7-7-7-7-7-7-7-7-7--|-7---7-7-7-7-7-7-7-7-7-7-7-7--|
A|-5---5-5-5-5-5-5-5-5-5-5-5-5--|-7---7-7-7-7-7-7-7-7-7-7-7-7--|
E|------------------------------|-5---5-5-5-5-5-5-5-5-5-5-5-5--|


     hoy grita por tI             ¡regresa a mi!
e|------------------------------|----------------|
B|------------------------------|----------------|
G|------------------------------|----------------|
D|-9---9-9-9-9-9-9-9-9-9-9-9-9--|--5-5-5-7-7-7---|
A|-9---9-9-9-9-9-9-9-9-9-9-9-9--|--5-5-5-7-7-7---|
E|-7---7-7-7-7-7-7-7-7-7-7-7-7--|--3-3-3-5-5-5---|


     tu retrato en mi pared         recuerdo de ti
e|----------|----------|----------|---------|--------------|
B|----------|----------|----------|---------|--------------|
G|-77-------|----------|----------|---------|--------------|
D|-77-------|---77-----|---99-----|---55----|------7-------|
A|-55-------|---77-----|---99-----|---55----|------7-------|
E|----------|---55-----|---77-----|---33----|------5-------|


     Gracias por ser
e|-----------------------------|------------------------------|
B|-----------------------------|------------------------------|
G|7---7-7-7-7-7-7-7-7-7-7-7-7--|------------------------------|
D|7---7-7-7-7-7-7-7-7-7-7-7-7--|-7---7-7-7-7-7-7-7-7-7-7-7-7--|
A|5---5-5-5-5-5-5-5-5-5-5-5-5--|-7---7-7-7-7-7-7-7-7-7-7-7-7--|
E|-----------------------------|-5---5-5-5-5-5-5-5-5-5-5-5-5--|


                                  lo que mas quiero
e|------------------------------|----------------|
B|------------------------------|----------------|
G|------------------------------|----------------|
D|-9---9-9-9-9-9-9-9-9-9-9-9-9--|--5-5-5-7-7-7---|
A|-9---9-9-9-9-9-9-9-9-9-9-9-9--|--5-5-5-7-7-7---|
E|-7---7-7-7-7-7-7-7-7-7-7-7-7--|--3-3-3-5-5-5---|



      Y siento que tu estas tan lejos
e|----------|----------|--------------------------------------------------|
B|----------|----------|--------------------------------------------------|
G|-77-77----|-99-99----|----11-11-11-11-11-11-11-11-11-11-11-11-11-11-11--|
D|-77-77----|-99-99----|----11-11-11-11-11-11-11-11-11-11-11-11-11-11-11--|
A|-55-55----|-77-77----|-----9--9--9--9--9--9--9--9--9--9--9--9--9--9--9--|
E|----------|----------|--------------------------------------------------|



No se que sentir

e|---------------------|
B|---------------------|
G|--12-11-9-11-9-7-----|
D|--12-11-9-11-9-7-----|
A|--10-9--7-9--7-5-----|
E|---------------------|


[ Tab from: http://www.guitaretab.com/c/colchon/184509.html ]
      Mi corazon                         hoy grita por ti
e|-----------------------------|------------------------------|
B|-----------------------------|------------------------------|
G|7---7-7-7-7-7-7-7-7-7-7-7-7--|------------------------------|
D|7---7-7-7-7-7-7-7-7-7-7-7-7--|-7---7-7-7-7-7-7-7-7-7-7-7-7--|
A|5---5-5-5-5-5-5-5-5-5-5-5-5--|-7---7-7-7-7-7-7-7-7-7-7-7-7--|
E|-----------------------------|-5---5-5-5-5-5-5-5-5-5-5-5-5--|


                                  regresa a mi
e|------------------------------|---------------|
B|------------------------------|---------------|
G|------------------------------|---------------|
D|-9---9-9-9-9-9-9-9-9-9-9-9-9--|--5-5-5-7-7-7--|
A|-9---9-9-9-9-9-9-9-9-9-9-9-9--|--5-5-5-7-7-7--|
E|-7---7-7-7-7-7-7-7-7-7-7-7-7--|--3-3-3-5-5-5--|

solo
e|-------------------------------------------------------|
B|-------------------------------------------------------|
G|-7-6----7-6---------7-6--------------7-6-7-7/9-7-6-----|
D|-----7------7-5---------7-7/9--------------------------|
A|-------------------------------------------------------|
E|-------------------------------------------------------|

e|-------------------------------------------------------|
B|-------------------------------------------------------|
G|-7-6----7-6---------7-6--------------7-6-7-7/9-7-6-----|
D|-----7------7-5---------7-7/9--------------------------|
A|-------------------------------------------------------|
E|-------------------------------------------------------|

e|-------------------------------------------------------|
B|-------------------------------------------------------|
G|-7-9-7---9-11-12---11-9--9/11----11-11-9-7-6-7-6-------|
D|-------------------------------------------------------|
A|-------------------------------------------------------|
E|-------------------------------------------------------|

e|-------------------------------------------------------|
B|-------------------------------------------------------|
G|---7-6---------7-6--------------7-6-7-7/9---11-12-11---|
D|--------7-5---------7-7/9------------------------------|
A|-------------------------------------------------------|
E|-------------------------------------------------------|

e|-------------------------------------------------------|
B|-------------------------------------------------------|
G|-7-6----7-6---------7-6--------------7-6-7-7/9-7-6-----|
D|-----7------7-5---------7-7/9--------------------------|
A|-------------------------------------------------------|
E|-------------------------------------------------------|


(Parte rapidilla)x 2
e|-------------------/-------------------/
B|-------------------/-------------------/
G|--7-6-7--666--7-6--/--9-7-9--777--9-7--/
D|--7-6-7--666--7-6--/--9-7-9--777--9-7--/
A|--5-4-5--444--5-4--/--7-5-7--555--7-5--/
E|-------------------/-------------------/

e|------------------------/-----------------------|
B|------------------------/-----------------------|
G|---11-9-11--999--11-9---/----12-11-9-11-9-7-----|
D|---11-9-11--999--11-9---/----12-11-9-11-9-7-----|
A|---9--7-9---777--9--7---/----10-9--7-9--7-5-----|
E|------------------------/-----------------------|


    te                             espere
e|--------------------------------------------|
B|-----------------------------|--------------|
G|-------------7-7-7-7------------------------|
D|---5-5-5-5---7-7-7-7------7--7---9-9-9-9----|
A|---5-5-5-5---5-5-5-5------7--7---9-9-9-9----|
E|—--3-3-3-3----------------5--5---7-7-7-7----|


                                   nunca pensé
e|--------------------------------------------|
B|--------------------------------------------|
G|-------------7-7-7-7------------------------|
D|---5-5-5-5---7-7-7-7------7--7---9-9-9-9----|
A|---5-5-5-5---5-5-5-5------7--7---9-9-9-9----|
E|—--3-3-3-3----------------5--5---7-7-7-7----|



                                   que fueras a volver

e|--------------------------------------------|
B|--------------------------------------------|
G|-------------7-7-7-7------------------------|
D|---5-5-5-5---7-7-7-7------7--7---9-9-9-9----|
A|---5-5-5-5---5-5-5-5------7--7---9-9-9-9----|
E|—--3-3-3-3----------------5--5---7-7-7-7----|


e|--------------------------------------------|
B|--------------------------------------------|
G|-------------7-7-7-7------------------------|
D|---5-5-5-5---7-7-7-7------7--7---9-9-9-9----|
A|---5-5-5-5---5-5-5-5------7--7---9-9-9-9----|
E|—--3-3-3-3----------------5--5---7-7-7-7----|




  el tiempo que                     estuvo aqui
    PM.......................      PM.......................
e|-----------------------------|------------------------------|
B|-----------------------------|------------------------------|
G|7---7-7-7-7-7-7-7-7-7-7-7-7--|------------------------------|
D|7---7-7-7-7-7-7-7-7-7-7-7-7--|-7---7-7-7-7-7-7-7-7-7-7-7-7--|
A|5---5-5-5-5-5-5-5-5-5-5-5-5--|-7---7-7-7-7-7-7-7-7-7-7-7-7--|
E|-----------------------------|-5---5-5-5-5-5-5-5-5-5-5-5-5--|


      tengo que aceptar             que me hizo cambiar

     PM.......................
e|------------------------------|-----------------------|
B|------------------------------|-----------------------|
G|------------------------------|-----------------------|
D|-9---9-9-9-9-9-9-9-9-9-9-9-9--|----12-11-9-11-9-7-----|
A|-9---9-9-9-9-9-9-9-9-9-9-9-9--|----12-11-9-11-9-7-----|
E|-7---7-7-7-7-7-7-7-7-7-7-7-7--|----10-9--7-9--7-5-----|


                    partiendo de nada
e|---------------------|----------------|
B----------------------|----------------|
G|--9-9-9-9-9-9-9-9----|--10-9-7-9-7-5--|
D|--x-x-x-x-x-x-x-x----|--x--x-x-x-x-x--|
A|--7-7-7-7-7-7-7-7----|--8--7-5-7-5-3--|
E|---------------------|----------------|


     y siento     y siento       ¡siento!
e|-------------|--------------|-------------|----------------|
B|-------------|--------------|-------------|----------------|
G|--5----------|--7-----------|--9----------|--10-9-7-9-7-5--|
D|--x----------|--x-----------|--x----------|--x--x-x-x-x-x--|
A|--3----------|--5-----------|--7----------|--8--7-5-7-5-3--|
E|-------------|--------------|-------------|----------------|

     y siento     y siento       ¡siento!

e|-------------|--------------|-------------|----------------|
B|-------------|--------------|-------------|----------------|
G|--5----------|--7-----------|--9----------|--10-9-7-9-7-5--|
D|--x----------|--x-----------|--x----------|--x--x-x-x-x-x--|
A|--3----------|--5-----------|--7----------|--8--7-5-7-5-3--|
E|-------------|--------------|-------------|----------------|