Song name
# A B C D E F G H I J K L M N O P Q R S T U V W X Y Z

Cold Chisel - Forever Now tab

Help us improve GuitareTab! Take a short survey!
intro solo=
i have spent the time to make this little bit because nobody else has done it...exept on 
tabs, but they dont work for me , so...

E|------------------------|
B|------7-----------------|
G|-2-2/6-/8~-----4--------|
D|------------/6b-4-4/666~|
A|------------------------|
E|------------------------|

E|-----------------------------|
B|------7----------------------|
G|-2-2/6-/8~-------4-----------|
D|------------/6b-4-4/6~--6p4h6|
A|-----------------------------|
E|-----------------------------|

E|-----------------------------------------|
B|------7--------5-7-10\9-9----------------|
G|-2-2/6-/8~-8-8-----------6------9-9p8h9p6|
D|-----------------------------------------|
A|-----------------------------------------|
E|--------------------------0-2-4~---------|
                    (softly)^ ^ ^

E|-------------------------|
B|--------7----------------|
G|-6\2-2/6-/8~88-9h11-10~~-|
D|-------------------------|
A|-------------------------|
E|-------------------------|
Related for Forever Now tab