Song name
# A B C D E F G H I J K L M N O P Q R S T U V W X Y Z

Cold Chisel - Khe Sanh tab

this is the solo to one of the best aussie songs ever. its easy and i hope u enjoy it.

e]--0-3-0-3-0-7-7-5s2--]
B]---------------------]
G]---------------------]
D]---------------------]
A]---------------------]
E]---------------------]

e]--3--0-------0-------------------2-]
B]---------0-------3---1----0---3----]
G]-----------------------------------]
D]-----------------------------------]
A]-----------------------------------]
E]-----------------------------------]

e]--3--0-----0---3-5-3-2-----2-3-5-8-7-5-3-2-]
B]--------0--------------3-------------------]
G]-------------------------------------------]
D]-------------------------------------------]
A]-------------------------------------------]
E]-------------------------------------------]

e]--3--12-10-8-7-5-3-7--3-5-7-8--15-12----]
B]----------------------------------------]
G]----------------------------------------]
D]----------------------------------------]
A]----------------------------------------]
E]----------------------------------------]

e]--8--7--5--12-10-------7--8--7--5-------]
B]----------------------------------------]
G]----------------------------------------]
D]----------------------------------------]
A]----------------------------------------]
E]----------------------------------------]
Tap to rate this tab
# A B C D E F G H I J K L M N O P Q R S T U V W X Y Z