Song name
# A B C D E F G H I J K L M N O P Q R S T U V W X Y Z

Cold Chisel - Breakfast At Sweethearts tab

For the intro it goes "Intro 1" then to "Intro 2" then back to "Intro 1" and then 
"Intro 2" TWICE! Listen to the song to get it right. 


Intro 1: Am, Em X2
Intro 2: C, Dm, F, G x1

Am
Campbell lane
Em
Through the window, curtain rain
Am
Long night gone, yellow day
Em
Speed shivers melt away

C           Dm
Six o'clock I'm goin down
F                    G
Coffee's hot and the toast is brown
C                   Dm
Hey streetsweeper, clear my way
F                     G
Sweethearts breakfast is the best in town   
Am         Em
Whoa......Breakfast at sweetheats

Am
Hey, Anne-Maria
Em
It's always good to see her
Am
She don't smile or flirt
Em
She just wears that mini-skirt
Am
Drunks come in
Em
Paper bag, Brandivino
Am
Dreams fly away
Em
As she pulls another cappucino

C           Dm
Six o'clock I'm goin down
F                    G
Coffee's hot and the toast is brown
C                   Dm
Hey streetsweeper, clear my way
F                     G
Sweethearts breakfast is the best in town 
Am         Em
Whoa......Breakfast at sweetheats

SOLO:
e|----------------------------8-------------------------------------------------------|
B|------------------------8--------------10p8-----8----8----8---------8---------------|
G|-10^^-------------------------------------------------------------------------------|
D|---------------------------------------------------------------9--------------------|
A|------------------------------------------------------------------------------------|
E|------------------------------------------------------------------------------------|


e|------------------------------------------------------------------------------------|
B|---10---------10----------10---------10------------10s13------13----15^^------------|
G|---------7----------7-----------7----------7s1--------------------------------------|
D|------------------------------------------------------------------------------------|
A|------------------------------------------------------------------------------------|
E|------------------------------------------------------------------------------------|



e|-------------------------------|
B|-----13----15------------------|
G|-----------------14------------|
D|-------------------------------|
A|-------------------------------|
E|-------------------------------|

Break: Am, Em.


C           Dm
Six o'clock I'm goin down
F                    G
Coffee's hot and the toast is brown
C                   Dm
Hey streetsweeper, clear my way
F                     G
Sweethearts breakfast is the best in town  


Outro: Am, Em.
Tap to rate this tab
 
# A B C D E F G H I J K L M N O P Q R S T U V W X Y Z