Song name
# A B C D E F G H I J K L M N O P Q R S T U V W X Y Z

Cold Specks - Blank Maps tab

Tuning:

e: C#
B: G#
G: F
D: C#
A: G#
E: C#

Capo on 6


Intro x2

     C#m                            G#dim
e----------------------------------------------------|
B----2----2----3----3----2----2----0----0------------|
G---1-1--1-1--1-1--1-1--1-1--1-1--1-1--1-1-----------|
D--2----2----2----2----2----2----0----0--------------|
A----------------------------------------------------|
E----------------------------------------------------|

Verse

e----------------------------------------------------|
B----2----2----3----3----2----2----0----0------------|
G---1-1--1-1--1-1--1-1--1-1--1-1--1-1--1-1-----------|
D--2----2----2----2----2----2----0----0--------------|   x4
A----------------------------------------------------|
E----------------------------------------------------|

Don't you wait on me, I'll shoot you down
Keep your eyes closed, your ear to the ground.
Pick up, middle of the night
Kill the silence I can't bear to speak.
Head for the heart, does it break?
Words may fall, the body remains
And every map is blank.

     C                     C#m
e--------------------------------------4----2---|
B----5----5----7----------2-----2-----2---------|
G---5-5--5-5--5--5-5-3---1--1--1--1-------1-----|
D--5----5----5----------2-----2----2-----2------|
A-----------------------------------------------|
E-----------------------------------------------|

When my words head for the cracks
Will you have my back

     C                    C#m        G#dim
e---------------------------------------------|
B----5----5----5----5-----2----2----0----0----|
G---5-5--5-5--5-5--5--5--1-1--1-1--1-1--1-1---|
D--5----5----5----5-----2----2----0----0------|
A---------------------------------------------|
E---------------------------------------------|

We were good children
and darling, let it out

e------------------------------------4----2--|
B----5----5----7-----------2----2-----2------|
G---5-5--5-5--5--5-5-3--1-1--1-1--1------1---|
D--5----5----5-----------2----2----2----2----|
A--------------------------------------------|
E--------------------------------------------|

When my words head for the cracks
Will you have my back

e---------------------------------------------|
B----5----5----5----5-----2----2----0----0----|
G---5-5--5-5--5-5--5--5--1-1--1-1--1-1--1-1---|
D--5----5----5----5-----2----2----0----0------|
A---------------------------------------------|
E---------------------------------------------|

We were good children
and darling, let it out


e----------------------------------------------------|
B----2----2----3----3----2----2----0----0------------|
G---1-1--1-1--1-1--1-1--1-1--1-1--1-1--1-1-----------|
D--2----2----2----2----2----2----0----0--------------|
A----------------------------------------------------|
E----------------------------------------------------|

I hold my breath, don't like to move
When the night comes, who will you be
Even the dead cannot be astoundingly alive
I am I am, I am I am a goddamn believer

e------------------------------------4----2--|
B----5----5----7-----------2----2-----2------|
G---5-5--5-5--5--5-5-3--1-1--1-1--1------1---|
D--5----5----5-----------2----2----2----2----|
A--------------------------------------------|
E--------------------------------------------|

When my words head for the cracks
Will you have my back

e---------------------------------------------|
B----5----5----5----5-----2----2----0----0----|
G---5-5--5-5--5-5--5--5--1-1--1-1--1-1--1-1---|
D--5----5----5----5-----2----2----0----0------|
A---------------------------------------------|
E---------------------------------------------|

We were good children
and darling, let it out

e------------------------------------4----2--|
B----5----5----7-----------2----2-----2------|
G---5-5--5-5--5--5-5-3--1-1--1-1--1------1---|
D--5----5----5-----------2----2----2----2----|
A--------------------------------------------|
E--------------------------------------------|

When my words head for the cracks
Will you have my back

e---------------------------------------------|
B----5----5----5----5-----2----2----0----0----|
G---5-5--5-5--5-5--5--5--1-1--1-1--1-1--1-1---|
D--5----5----5----5-----2----2----0----0------|
A---------------------------------------------|
E---------------------------------------------|

We were good children
and darling, let it out

e---------------------------------------------|
B----5----5----5----5-----2----2----0----0----|
G---5-5--5-5--5-5--5--5--1-1--1-1--1-1--1-1---|
D--5----5----5----5-----2----2----0----0------|
A---------------------------------------------|
E---------------------------------------------|

Well, I am I am, I am I am a goddamn believer     x2

e------------------------------------4----2--|
B----5----5----7-----------2----2-----2------|
G---5-5--5-5--5--5-5-3--1-1--1-1--1------1---|
D--5----5----5-----------2----2----2----2----|
A--------------------------------------------|
E--------------------------------------------|

Ah Ah Ah Ah......

e---------------------------------------------|
B----5----5----5----5-----2----2----0----0----|
G---5-5--5-5--5-5--5--5--1-1--1-1--1-1--1-1---|
D--5----5----5----5-----2----2----0----0------|
A---------------------------------------------|
E---------------------------------------------|

Ah ah ah ah.....

e----------------------------------------------------|
B----2----2----3----3----2----2----0----0------------|
G---1-1--1-1--1-1--1-1--1-1--1-1--1-1--1-1-----------|  x2
D--2----2----2----2----2----2----0----0--------------|
A----------------------------------------------------|
E----------------------------------------------------|
Tap to rate this tab
# A B C D E F G H I J K L M N O P Q R S T U V W X Y Z