Guitaretab - guitar tabs
Song name
# A B C D E F G H I J K L M N O P Q R S T U V W X Y Z

Cold War Kids - Hospital Beds Acoustic tab

Hospital Beds (acoustic) - Cold War Kids

Tabbed by Osmock

The other version of this was just off, It wasnt going anywhere.
Heres my attempt at both guitars for it.

KEWL!


Guitar 1:
Chords used in the Verse, pre chorus and intro

e|--2--------4---------5--------0-------------------------------------|
B|--2--------5---------5--------0-------------------------------------|
G|--3--------6---------6--------1-------------------------------------|
D|--4--------6---------7--------2-------------------------------------|
A|--4--------4---------7--------2-------------------------------------|
E|--2--------4---------5--------0-------------------------------------|

You know the strum, figure it out yourself. Im too lazy to write it. Haha.

Guitar 2:
Verse, intro and pre chorus.

e|---------------9-9-------9-9-9p7-7--------------|
B|------------------------------------9-----------|
G|--8-8-8-8-8h9-------8-8-------------------------|
D|------------------------------------------------|
A|------------------------------------------------|
E|------------------------------------------------|


CHORUS:

Both guitars do the same thing.

e|--4---------2---------0--------------------------------------------------|
B|--5---------4---------0--------------------------------------------------|
G|--6---------4---------1--------------------------------------------------|
D|--6---------4---------2--------------------------------------------------|
A|--4---------2---------2--------------------------------------------------|
E|--4---------2---------0--------------------------------------------------|

Again, Figure it out for youself, it isnt hard. Just listen to a acoustic performance of 
song.

Interlude thingy:

Both Guitars are doing the same thing again
[ Tab from: http://www.guitaretab.com/c/cold-war-kids/103535.html ]
e|---------------------------------------------------------------------|
B|---------------------------------------------------------------------|
G|---------------------------------------------------------------------|
D|---------------------------------------------------------------------|
A|--9-9-9------------------7-7-7-7-7--9-9-9----------------------------|
E|--------9-9-9-9-9--5-5-5------------------9-9-9-9-9--5-5-5-0-0-0-0-0-|

And thats the whole song.
Heres the order of the whole thing.

Intro
Verse
Prechorus
Chorus
Interlude thing
Verse
Prechorus
Chorus
Chorus

END!

And the lyrics go...

Thereís nothing to do here,
some just whine and complain
In bed at the hospital
Commin and goin, asleep and awake
In bed at the hospital
Tell me the story of how you ended up here
Iíve heard it all in the hospital
Nurses a fussin, doctors on tour
Somewhere in India

Iíve got one friend, laid across from me
I did not choose him, he did not choose me
Weíve got not chance of recovery

Sharing hospitals
the joy and misery
the joy and misery
the joy and misery

Put out the fire boys dont stop dont stop
put out the fire on us
Bring the buckets by the dozen,
bring your nieces and your cousins
Go an put out the fire on us

Vietnam, fishing trips
Italian opera

Iíve got one friend, laid across from me
I did not choose him, he did not choose me
Weíve got not chance of recovery
Sharing hospitals
the joy and misery
the joy and misery
the joy and misery
The joy, the joy, the joy, the joy, misery

Put out the fire boys dont stop dont stop
put out the fire on us
Bring the buckets by the dozen,
bring your nieces and your cousins
Go an put out the fire on us

SO, thats it. I hope you enjoy.
Any issues with the tab just leave a comment or fix it yourself.
KWEL!

BYE!
Related for Hospital Beds Acoustic tab