Song name
# A B C D E F G H I J K L M N O P Q R S T U V W X Y Z

Cold War Kids - Something Is Not Right With Me tab

-------------------------------------------------------------------------------
			              Something Is Not Right With Me - Cold War Kids
-------------------------------------------------------------------------------


You'll have to listen to the song to know when to play these riffs
because it is mostly drums, bass and singing 

It's a fairly easy song to play but to get best effect just play with some
reverb :] 


Intro:
e|--------------------------------------------------------|
b|-5/7--7-7-7-7-7\5--5-5-5-5------------------------------|
g|---------------------------6b-4-4-4-4-6-4-6-4-6b-4-4-4--|
d|--------------------------------------------------------|
a|--------------------------------------------------------|
e|--------------------------------------------------------| (X2)

Main riffs played by Nathan between the beginning of the song and the
end of the song
e|-7----5----0----|
b|-7----5----0----|
g|-8----6----1----|
d|-9----7----2----|
a|-----------2----|
e|-----------0----|


Main riffs played by Matt between the beginning of the song and the
end of the song
e|-7----5----0------|
b|-9----7----0------|
g|-9----7----2------|
d|------------------|
a|------------------|
e|------------------|

Any Comments Questions Suggestions greatly Apreciated...





Tap to rate this tab
# A B C D E F G H I J K L M N O P Q R S T U V W X Y Z