Song name
# A B C D E F G H I J K L M N O P Q R S T U V W X Y Z

Cold War Kids - The Wedding chords

Highlighted       Show chord diagrams
---------------------------------------------------------------------------
the wedding - cold war kids
---------------------------------------------------------------------------
Tabbed by:loren james
Email:modestmoose45@yahoo.com
album: The Mulberry Street. Ep

so theres just a few chords
in this song for lead guitar 
and its pretty simple.
comments or concerns are welcome

Tuning:eadgbe(standard)          some version
  A major    F# minor     D6       of D6add9-ish
e|--x----------x----------7----------7------------------------|
B|--5----------7----------7----------9-(or 10)----------------|
G|--6----------6----------7----------7------------------------|
D|--7----------7----------7----------7------------------------|
A|--x----------x----------x----------x------------------------|
E|--x----------x----------x----------x------------------------|

Breakdown:is a bar chord A major and another chord that i can't decipher
e|-----5------------------------------------------------------|
B|-----5------------------------------------------------------|
G|-----4------------------------------------------------------|
D|-----7------------------------------------------------------|
A|-----7------------------------------------------------------|
E|-----5------------------------------------------------------|


| /  slide up
| \  slide down
| h  hammer-on
| p  pull-off
| ~  vibrato
| +  harmonic
| x  Mute note
===============================================================================
Tap to rate this tab
# A B C D E F G H I J K L M N O P Q R S T U V W X Y Z