Guitaretab - guitar tabs
Song name
# A B C D E F G H I J K L M N O P Q R S T U V W X Y Z

Cold War Kids - Red Wine Success tab

If you have questions, my AIM name is Cameron5.
 
RED WINE, SUCCESS!
by
COLD WAR KIDS

Tabbed by: Cameron L. a.k.a. Ska Bassist


|Intro|

E|--------------------3-3-3-3-3/--|
B|--3/5~---5-5-5-3~---------------|
G|--3/5~---5-5-5-3~---------------|
D|--------------------------------|
A|--------------------------------|
E|--------------------------------|

|Verse|


E|----------------------------------------------------|
B|----------------------------------------------------|
G|----3-----5-----5-----5-5-5-3-----3-----3----3-3-3--|   
D|--5-5---5-5---5-5---5-5-5-5-3---3-3---3-3--3-3-3-3--|
A|--5-3---5-3---5-3---5-3-3-3-1---3-1---3-1--3-1-1-1--|
E|--3-----3-----3-----3-----------1-----1----1--------|

And he alternates between this:
[ Tab from: http://www.guitaretab.com/c/cold-war-kids/90807.html ]
E|---------------|
B|---------------|
G|---------------|
D|-/3-3-3-3-3-3--|
A|---------------|
E|---------------|

and this:

E|-----------------|
B|-----------------|
G|-----------------|
D|-----------------|
A|--3-3-3-3-5-5/7--|
E|-----------------|

And the lead does this in the background:

E|--/8-----8--------8----------6-----6---6-6-6-6-6/8---|
B|-----8-----8--------8----6-6-6-6-6-6-6-6-6-6-6-6/8---|
G|-------9-----9--------9--7-7---7-7---7---------7/9---| (It seems pretty 
D|---------------10------------------------------------|  improvised, so 
A|-----------------------------------------------------| just play around
E|-----------------------------------------------------|     with it)

Then, towards the end, they just strums this chord for a while:

E|-----|
B|--8--|
G|--6--|
D|--7--|
A|--5--|
E|-----|

That's all. Hope it helped, and good luck.

 Cameron LeViere 2007, all rights reserved
Related for Red Wine Success tab