Song name
# A B C D E F G H I J K L M N O P Q R S T U V W X Y Z

Cold War Kids - Heavy Boots tab

-------------------------------------------------------------------------------
			     HEAVY BOOTS - Cold War Kids
-------------------------------------------------------------------------------

Tabbed by: Mikki
Email: hilsmikki at gmail dot com

Tuning: standard EADGBe

This is a very simple song. It\'s practically based around a \"riff\", which the 
fools a lot around with, and improvises a lot.


VERSE

”lead guitar” (\"riff\")

    D
e|-(5)~-----------|
B|--7-~-----------|
G|--7-~---9^-9^-7-|
D|--7-~-----------|
A|-(5)~-----------|
E|----------------|


2nd guitar

   D     F         G  Gsus4 F  D
e|---------------|-----------------|
H|-7-7-x-10-10-x-|-12-13-12-10-7-7-|
G|-7-7-x-10-10-x-|-12-12-12-10-7-7-|
D|-7-7-x-10-10-x-|-12-12-12-10-7-7-|
A|-5-5-x-8—-8--x-|-10-10-10-8—-5-5-|
E|---------------|-----------------|


CHORUS

”lead guitar”

     Gsus4 D
e|----------------|
B|---13-6---------|
G|---14-7---------| x3
D|----------------|
A|----------------|
E|----------------|

     Gsus4
e|------------------|
B|---13-13-13-13-13-|
G|---14-14-14-14-14-|
D|------------------|
A|------------------|
E|------------------|


alternatively:

     Gsus4 D
e|----------------|
B|---13-----------|
G|---14-10--------| x3
D|------12--------|
A|----------------|
E|----------------|

     Gsus4
e|------------------|
B|---13-13-13-13-13-|
G|---14-14-14-14-14-|
D|------------------|
A|------------------|
E|------------------|


2nd guitar

   D         Dm
e|-5-555-5-|-5-555-5-|
B|-7-777-7-|-6-666-6-|
G|-7-777-7-|-7-777-7-|
D|-7-777-7-|-7-777-7-|
A|-5-555-5-|-5-555-5-|
E|---------|---------|
Tap to rate this tab
# A B C D E F G H I J K L M N O P Q R S T U V W X Y Z