Song name
# A B C D E F G H I J K L M N O P Q R S T U V W X Y Z

Cold War Kids - God Make Up Your Mind tab

Help us improve GuitareTab! Take a short survey!
Highlighted       Show chord diagrams
-------------------------------------------------------------------------------
		God Make Up Your Mind - Cold War Kids
-------------------------------------------------------------------------------
Tabbed by: Mikki
Email: hilsmikki[@]gmail.com

Tuning: standard EADGBe


VERSE / CHORUS

| Am | Am | D | Em |

the crazy part. just play around with the chord notes and maybe the A# scale

| A# |


Chords:

Am: 577555
D:  x57775
Em: x79987
A#: 688766

A# scale:

e|---------------------------5-6-|
B|-----------------------6-8-----|
G|-----------------5-7-8---------|
D|-----------5-7-8---------------|
A|-----5-6-8---------------------|
E|-6-8---------------------------|
Related for God Make Up Your Mind tab