Song name
# A B C D E F G H I J K L M N O P Q R S T U V W X Y Z

Cold - Remedy tab

-------------------------------------------------------------------------------
			     Remedy - Cold
-------------------------------------------------------------------------------
Tabbed by:Your friendly neighborhood Soul_Rocker
Email:rockfan_0@juno.com <---subject to change at any moment

Tuning:Standard

I noticed that the people that tabbed this song tabbed it really hard...this is easier
for the intro:

e|---------------------------------------------------------------|
B|---------------------------------------------------------------|
G|-----2---2---2---2-----------------------------2---2-----------|
D|-----2---2---2---2----2---2---2----3---3---3---2---2----5---5--|
A|-----0---0---0---0----2---2---2----3---3---3---0---0----5---5--|
E|----------------------0---0---0----1---1---1------------3---3--|

Listen to the song for rhythm and however many times you repeat that, but i think it
pretty much repeats through the entire song. Hope it sounds good to you, as it sounds
good to me.  Email me if you hate it, but i'm not likely to give in.
Tap to rate this tab
 
# A B C D E F G H I J K L M N O P Q R S T U V W X Y Z