Song name
# A B C D E F G H I J K L M N O P Q R S T U V W X Y Z

Cold - Wasted Years tab

Help us improve GuitareTab! Take a short survey!
If you don't want to detune your guitar. This is the standard tuned version of 'Wasted
Years' which sounds exactly like the cd version note for note.

CAPO: 1ST FRET

Intro Verse

(CD version)

|--------------------------------------|
|--------------------------------------|
|--------------------------------------|
|--------------------------------------|
|---5/7-7-7-7/9-9-9-9-9/10-10-10-10-10-|
|---0-0-0-0-0-0-0-0-0-0-0--0--8--8--8--|

|--------------------------------------|
|--------------------------------------|
|--------------------------------------|
|--------------------------------------|
|---5/7-7-7-7/9-9-9-9-9/10-10-12-12-12-|
|---0-0-0-0-0-0-0-0-0-0-0--0--10-10-10-|

(Acoustic chords)

    Em       C       Em      Dsus4
|---0--------0--------0--------0-------|
|---0--------1--------0--------3-------|
|---0--------0--------0--------2-------|
|---2--------2--------2--------0-------|
|---2--------3--------2--------x-------|
|---0--------0--------0--------x-------|


Chorus

(CD version)

|--------------------------------------------------------------------|
|-------0-----------------0------------------0--------------0--------|
|---2-----2-----------2------2----------2------2--------2-----2------|
|-----2------2----------2------2----------2------2--------0-----0----|
|-0-------------0---3-------------3----------------------------------|
|------------------------------------3-------------3--0-----------0--|

(Acoustic Chords)

   Asus2     F       Gsus     Dsus4
|---0--------1--------1--------0-------|
|---0--------1--------1--------3-------|
|---2--------0--------0--------2-------|
|---2--------2--------0--------0-------|
|---0--------3--------2--------x-------|
|---0--------x--------3--------x-------|(create your own strumming pattern)


Solo (Both CD and acoustic)


|----------------------------------------------------------------------|
|----------------------------------------------------------------------|
|-------------------------------12-----11------------------------------|
|---7/9-9-9-9/10-10-10-10/12-12-----12-----12-12-12--------------------|
|----------------------------------------------------------------------|
|----------------------------------------------------------------------|

|----------------------------------------------------------------------|
|----------------------------------------------------------------------|
|----------------------------------------------------------------------|
|---7/9-9-9-9/10-10-10-10/12-12-12-12/14-------------------------------|
|----------------------------------------------------------------------|
|----------------------------------------------------------------------|

|----------------------------------------------------------------------|
|----------------------------------------------------------------------|
|-----------------------------------------------------12-12-12p11------|
|--12-12h14-14-14-14-14-14--12-12h14-14-14-14-14-14---------------12---|
|----------------------------------------------------------------------|
|----------------------------------------------------------------------|

|----------------------------------------------------------------------|
|----------------------------------------------------------------------|
|--------------------------------12p11----11----12p11----11-----11--14-|
|--12h14-14-14-14-14-14-14-14-14-------12----12-------12-----12--------|
|----------------------------------------------------------------------|
|----------------------------------------------------------------------|
Related for Wasted Years tab