Song name
# A B C D E F G H I J K L M N O P Q R S T U V W X Y Z

Cold - Space Oddity tab

Space Oddity (David Bowie Cover)
Straight C Tuning, tune down two whole steps

1=C   4=Bb
2=G   5=F
3=Eb  6=C

| --------------------------------------------------------------- |
| --------------------------------------------------------------- |
| --------------------------------------------------------------- |
| -7-7-7-7-7-7-7-7-7-7-7-7-6-6-6-6-6-6-6-6-6-6-6-6--------------- |
| -7-7-7-7-7-7-7-7-7-7-7-7-6-6-6-6-6-6-6-6-6-6-6-6--------------- |
| -5-5-5-5-5-5-5-5-5-5-5-5-4-4-4-4-4-4-4-4-4-4-4-4--------------- |
  Intro/Verse

| ------------------------------------------------------ |
| --8/12~---------8/12~--------------------------------- |
| ----------8~-----------8~----6~-----4~-----3---------- |
| ------------------------------------------------------ |
| ------------------------------------------------------ |
| ------------------------------------------------------ |
  Kelly's lead that's played throughout
  most of the song.
Tap to rate this tab
# A B C D E F G H I J K L M N O P Q R S T U V W X Y Z