Song name
# A B C D E F G H I J K L M N O P Q R S T U V W X Y Z

Cold - My Religion tab

Cold
My Religion
Tuning Eb Ab Db Gb Bb eb

Intro x2

|guitar 1 (wah wah)
|
|-------------------------------------------------|
|-------------------------------------------------|
|-/9~---/11~---/12~---/14~---/17~~~---------------|
|-------------------------------------------------|
|-------------------------------------------------|
|-------------------------------------------------|


|guitar 2
|
|-------------------------------------------------|
|-------------------------------------------------|
|-------------------2-2-2-5-5-5-5-5-5-5-5-5-5-5-5-|
|-2-2-2-4-4-4-5-5-5-2-2-2-5-5-5-5-5-5-5-5-5-5-5-5-|
|-2-2-2-4-4-4-5-5-5-0-0-0-3-3-3-3-3-3-3-3-3-3-3-3-|
|-0-0-0-2-2-2-3-3-3-------------------------------|

Verse x4

|guitar 1&2
|
|-------------------------------------------------|
|-------------------------------------------------|
|-------------------2~----5-5-5-5-5-5-5-5-5-5-5-5-|
|-2~----4~----5~----2~----5-5-5-5-5-5-5-5-5-5-5-5-|
|-2~----4~----5~----0~----3-3-3-3-3-3-3-3-3-3-3-3-|
|-0~----2~----3~----------------------------------|

Chorus x2

|guitar 1
|
|-------------------------------------------------------------------------|
|-------------------------------------------------------------------------|
|----------11----------------11----------------11----------------11-------|
|-12-14-16----16-14-12-14-16----16-14-12-14-16----16-14-12-14-16----16-14-|
|-------------------------------------------------------------------------|
|-------------------------------------------------------------------------|


|guitar 2
|
|---------------------------------------------------------------------------|
|---------------------------------------------------------------------------|
|-2----2--2--2--2----5----5--5--5--5----------------------------------------|
|-2----2--2--2--2----5----5--5--5--5----5----5--5--5--5----3----3--3--3--3--|
|-0----0--0--0--0----3----3--3--3--3----5----5--5--5--5----3----3--3--3--3--|
|---------------------------------------3----3--3--3--3----1----1--1--1--1--|


After 1st Chorus Play:
intro  x1
Verse  x4
Chorus x4


Bridge

|guitar 1 (wah wah)
|
|-------------------------------------------------|
|-------------------------------------------------|
|-/9~---/11~---/12~---/14~---/17~~~---------------|
|-------------------------------------------------|
|-------------------------------------------------|
|-------------------------------------------------|


|guitar 2
|
|-------------------------------------------------|
|-------------------------------------------------|
|-------------------2-2-2-5-5-5-5-5-5-5-5-5-5-5-5-|
|-2-2-2-4-4-4-5-5-5-2-2-2-5-5-5-5-5-5-5-5-5-5-5-5-|
|-2-2-2-4-4-4-5-5-5-0-0-0-3-3-3-3-3-3-3-3-3-3-3-3-|
|-0-0-0-2-2-2-3-3-3-------------------------------|

|guitar 1 (wah wah)
|
|-------------------------------------------------|
|-/20~--/19~--/15~--/12~---/20~~~-----------------|
|-------------------------------------------------|
|-------------------------------------------------|
|-------------------------------------------------|
|-------------------------------------------------|


|guitar 2
|
|-------------------------------------------------|
|-------------------------------------------------|
|-------------------2-2-2-5-5-5-5-5-5-5-5-5-5-5-5-|
|-2-2-2-4-4-4-5-5-5-2-2-2-5-5-5-5-5-5-5-5-5-5-5-5-|
|-2-2-2-4-4-4-5-5-5-0-0-0-3-3-3-3-3-3-3-3-3-3-3-3-|
|-0-0-0-2-2-2-3-3-3-------------------------------|


After bridge play:
Chorus x4

Outro

|guitar 1 (wah wah)
|
|-------------------------------------------------|
|-/20~--/19~--/15~--/12~---/17~~~-----------------|
|-------------------------------------------------|
|-------------------------------------------------| x2
|-------------------------------------------------|
|-------------------------------------------------|


|guitar 2
|
|-------------------------------------------------|
|-------------------------------------------------|
|-------------------2-2-2-5-5-5-5-5-5-5-5-5-5-5-5-|
|-2-2-2-4-4-4-5-5-5-2-2-2-5-5-5-5-5-5-5-5-5-5-5-5-| x2
|-2-2-2-4-4-4-5-5-5-0-0-0-3-3-3-3-3-3-3-3-3-3-3-3-|
|-0-0-0-2-2-2-3-3-3-------------------------------|

|guitar 1 (wah wah)
|
|------------------------------------------------------------|
|-20-20-20-20--19-19-19-19--15-15-15-15--12-15-12-20~--------|
|------------------------------------------------------------|
|------------------------------------------------------------|
|------------------------------------------------------------|
|------------------------------------------------------------|


|guitar 2
|
|-------------------------------------------------|
|-------------------------------------------------|
|-------------------------------------------------|
|-2-2-2-2--4-4-4-4--5-5-5-5--7-10-7-10~~~---------|
|-2-2-2-2--4-4-4-4--5-5-5-5--7-10-7-10~~~---------|
|-0-0-0-0--2-2-2-2--3-3-3-5--5-8--5-8-~~~---------|
Tap to rate this tab
# A B C D E F G H I J K L M N O P Q R S T U V W X Y Z