Cold - Bleed tab

|-------2---2--------0---0----------0---0----------0-------|
|------0------0-----0------0------0-------0------0---0-----|
|----0----0-------0----0--------0-----0--------0-----------|
|--2------------0--------------------------------------0~2-|
|-----------------------------4--------------3-------------|
|----------------------------------------------------------|

Im putting the 0~2 as a reference point,
(keep in mind you play it everytime you enter the verse rift.)I think you play this 
second part untill Aaron comes in.

|--------2h3--2---------0---0---------0------0------|
|------0-------0-----0-------0-----0-------0--0-----|
|----0-----0-------0-----0-------0-------0----------|
|----------------0------------------------------0~2-|
|(0~2)-------------------------4-------3------------|
|---------------------------------------------------|


Chorus:
|---------------------------------------------------------|
|--------3---3---------3---3---------3---3--------3-------|
|------0---0---0-----0---0---0-----0---0---0----0---0-----|
|0~2--0-------------0------------2-------------0----------|
|------------------------------3----------2-------(0~2)---|
|----3------------2---------------------------------------|
Tap to rate this tab
 
# A B C D E F G H I J K L M N O P Q R S T U V W X Y Z