Song name
# A B C D E F G H I J K L M N O P Q R S T U V W X Y Z

Cold - Strip Her Down tab

Stip her down
Cold

C F Bb Eb G C

This I feel is a little better than the others on here. They are kinda a little to simple

 acoustic
--------------------------------------------------------------------------------------------------|
--------------------------------------------------------------------------------------------------|
---------5-5-5--5-5-5-5-5--------4-4-4--4-4-4-4-4--------3-3-3--3-3-3-3-3-------------------------|
---------3-3-3--3-3-3-3-3--------2-2-2--2-2-2-2-2--------1-1-1--1-1-1-1-1---------2-2-2--2-2-2-2--|
---------3-3-3--3-3-3-3-3-x-xx-2-2-2--2-2-2-2-2-x-xx-1-1-1--1-1-1-1-1-x-xx-0-0-0--0-0-0-0---------|
 -1-2-3-3-3-3--3-3-3-3-3-x-xx-2-2-2--2-2-2-2-2-x-xx-1-1-1--1-1-1-1-1-x-xx-0-0-0--0-0-0-0----------|   x4

"could have stripped her down..."
----------------------------------------------------------------------------------------------------|
----------------------------------------------------------------------------------------------------|
----------------------------------------------------------------------------------------------------|
--8-8-8--8-8-8-8-8--------10-10-10--10-10-10-10-10--------7-7-7--7-7-7-7-7--------5-5-5--5-5-5-5-5--|
--8-8-8--8-8-8-8-8-x-xx-8----8---8---8---8---8---8---8-x-xx-5-5-5--5-5-5-5-5-x-xx-3-3-3--3-3-3-3-3--|
--8-8-8--8-8-8-8-8-x-xx-9----9---9---9---9---9---9---9-x-xx-5-5-5--5-5-5-5-5-x-xx-3-3-3--3-3-3-3-3--|   x2

Solo

--------------------------------------------------------9-----9-------------|
--9^---------9^---------------------------------9^-9---9^----9^------9^-----|
-----------------10~-10\-5~---5\-------------------------------------7^-----|
---------------------------------------3~-----------------------------------|
----------------------------------------------------------------------------|
----------------------------------------------------------------------------|x3

Riff 2

----------------------------------------------------------|
----------------------------------------------------------|
---------------------------------------1------------------|
--------------3-------------------------------------------|
--------------------3-------------3-----3-----------------|
-1-2-3--3-----3----3-4-5--3-----------3--2--4-------------|

--------------------------------------------------------------|
--9-10-9-12-9-9-10-8-8-8h9p8----------------------------------|
--------------------------------------------------------------|
--------------------------------------------------------------| (x2)
--------------------------------------------------------------|
--------------------------------------------------------------|

2nd solo

13^-13^----13^----13^------14^--14^-----14^----14^----------------|
--11^-----11^----11^----11^--12^-----12^-----12^----12^-----------|
------------------------------------------------------------------|
------------------------------------------------------------------|
------------------------------------------------------------------|
------------------------------------------------------------------|   x4


"i really love you guys..."   Outro

--7-5-4-5-7-5-4-5-7-------7-5-4-5-5h7p5---7-5-4-5-7-5-4-5-4-5-4-------4-|
------------------------------------------------------------------------|
------------------------------------------------------------------------|
------------------------------------------------------------------------|
------------------------------------------------------------------------|
------------------------------------------------------------------------|
Tap to rate this tab
# A B C D E F G H I J K L M N O P Q R S T U V W X Y Z