Song name
# A B C D E F G H I J K L M N O P Q R S T U V W X Y Z

Cold - The Break tab

Artist: Cold
Title: The Break
Album: Superfiction

Tuning: (low to high) C F Bb Eb G C

Tabbed by: FireReaverX


Verse
C |----------------------------------------------------------------------|
G |----------------------------------------------------------------------|
Eb|---7---------------8---------------10----------------12-----10---\8---|
Bb|-5---------------5---------------8----------------10------------------| 3x
F |----------------------------------------------------------------------|
C |----------------------------------------------------------------------|

C |-------------------------------------------------------------------------------------------|
G |-------------------------------------------------------------------------------------------|
Eb|---7---------------8---------------10-------------12-----12-----12---12---12---12-12-------|
Bb|-5---------------5---------------8----------------10-----10-----10---10---10---10-10-------|
F |--------------------------------------------------10-----10-----10---10---10---10-10-------|
C |-------------------------------------------------------------------------------------------|


Chorus
C |-----------------------------------------------------------------|
G |-----------------------------------------------------------------|
Eb|-8---------------------------------------------------------------|
Bb|-8-------------------------------8-------------------------------|
F |-6-------------------------------8-------------------------------|
C |---------------------------------6-------------------------------|
                                                                      2x
C |-----------------------------------------------------------------|
G |-----------------------------------------------------------------|
Eb|-----------------------------------------------------------------|
Bb|-3-------------------------------6-------------------------------|
F |-3-------------------------------6-------------------------------|
C |-1-------------------------------4-------------------------------|


Verse
Chorus


Bridge
C |----------------------------------------|
G |----------------------------------------|
Eb|-13-12-10-12-----------------------13---|
Bb|---------------------12-----13----------| 4x
F |----------------------------------------|
C |----------------------------------------|

C |-16-15-13-15-----------------------16---|
G |---------------------15-----16----------|
Eb|----------------------------------------|
Bb|----------------------------------------| 4x
F |----------------------------------------|
C |----------------------------------------|


Chorus


| /  slide up
| \  slide down
| b  bend
| h  hammer-on
| p  pull-off
| v  vibrato
| x  mute string
| .  palm mute
===============================================================================
Tap to rate this tab
# A B C D E F G H I J K L M N O P Q R S T U V W X Y Z