Song name
# A B C D E F G H I J K L M N O P Q R S T U V W X Y Z

Cold - Rain Song tab

Song: Rain Song
Artist: Cold
Tabbed by: grubs_r_good
Tuning: C (C F Bb Eb G C) down 2 whole steps


Intro:

C  ------------------------------------------------------------------|
G  ------------------------------------------------------------------|
Eb ------------------------------------------------14----------------|
Bb ----11-11-11--11-11-11--11-11-11--11-11-11-11-------12-11---11-12-|
F  ----------------------------------------------------------12------|
C  ------------------------------------------------------------------|
    p.m.........................................

C  -----------------------------------------------------------------|
G  -----------------------------------------------------------------|
Eb ---------------------14------------------------------------------|
Bb ---11-12-11---11-12-----12-11----11-12--14--12-11----------------|  X1
F  12----------12----------------12---------------------------------|
C  -----------------------------------------------------------------|


Verse: (When it rains....)

C  ----------------------------------|
G  ----------------------------------|
Eb 7---------------11----------------|
Bb 7-x8----9-------11-x8----7--------|      X2
F  5-------9-------9--------7--------|
C  --------7-x8-------------5-x8-----|


Chorus: (And everytime it rains...)

C  ----------------------------------|
G  ----------------------------------|
Eb 7-------11------------------------|
Bb 7-x8----11-x8----9-------7--------|      X2
F  5-------9--------9-------7--------|
C  -----------------7-x8----5-x8-----|


Intro: X1


Verse #2: (I'll stay strong...) X4


Chorus #2: (And everytime it rains...)  X4


Bridge: (Meeeeeeee...)

C  --------------------------------------------|
G  --------------------------------------------|
Eb 12-----11-----9-----------------------------|
Bb 12-x3--11-x2--9-x2--12-----11---------------|  X2
F  10-----9------7-----12-x8--11-Let it ring---|
C  --------------------10-----9----------------|

   (I'll never be the same...)

C  -----------------------------------------------------------|
G  -----------------------------------------------------------|
Eb --------12-11------------12-11------------12-11------12----|
Bb 12------12-11----12------12-11----12------12-11-x8---12----|
F  12-x8---10-9-----12-x8---10-9-----12-x8---10-9-------10----|
C  10---------------10---------------10-----------------------|


Chorus #3:  (And everytime it rains...) X3


Ending:  ( And everytime it rains...)

C  ----------------------------------------------------------|
G  ----------------------------------------------------------|
Eb 7-------11------------------------------------------------|
Bb 7-x8----11-x8----9-------7--------7-------4---------------|
F  5-------9--------9-x8----7-x8-----7-x8----4---------------|
C  -----------------7-------5--------5-------2---------------|


that's pretty much the whole song. the bridge part might be a little messy, i was in a
hurry, so you'll have to figure out the rythmn for yourselves (sorry) but its not to
terribly difficult. any questions, concerns,or comments feel free to email me at 
joey_hang@yahoo.com. thanks, and good playing!!
Tap to rate this tab
 
# A B C D E F G H I J K L M N O P Q R S T U V W X Y Z