Song name
# A B C D E F G H I J K L M N O P Q R S T U V W X Y Z

Cold - Give tab

Band: Cold
Song: Give
Album: Cold
Tuning: C Standard (High to low) C,G,Eb,Bb,F,C

Hey guys decided to tab out this song because every tab isn't close or close enough to 
the real song. Like all cold songs the guitar is tuned down to C standard.

   Main Riff/Intro
                                                                      |-2x-|
C|-------------------------------------|------------------------------------|
G|-------------------------------------|------------------------------------|
Eb|-----------5-5-5-5-------------------|-----------5-5-5-5-----------------|
Bb|--2-2-2-2--5-5-5-5--5-5-5-5--3-3-3-3-|--2-2-2-2--5-5-5-5--5-5-5-5--x-x-3-|
 F|--2-2-2-2--3-3-3-3--5-5-5-5--3-3-3-3-|--2-2-2-2--3-3-3-3--5-5-5-5--x-x-1-|
 C|--0-0-0-0-----------3-3-3-3--1-1-1-1-|--0-0-0-0-----------3-3-3-3--x-x-1-|


The verses are basically natural harmonics picked really hard on the.

   Verse

 C|--(5)--|
 G|--(5)--|
Eb|-------|
Bb|-------|
 F|-------|
 C|-------|


   Chorus: Just have to figure out the rhythm your more comfortable with.

 C|--------------------------------------------------|
 G|--------------------------------------------------|
Eb|--------------------------------------------------|
Bb|--7-7-7-7--5-5-5-5--3-3-3-3-3-3-3-3-3-3--5-5-5-5--|
 F|--7-7-7-7--5-5-5-5--3-3-3-3-3-3-3-3-3-3--5-5-5-5--|
 C|--5-5-5-5--3-3-3-3--1-1-1-1-1-1-1-1-1-1--3-3-3-3--|


   Bridge/Breakdown: This part where scooter is just talking and not singing is the 
Chorus but with a more slower pace and palm mutes mixed.



   Bridge: Basically the main riff just slower

 C|----------------------|
 G|----------------------|
Eb|-------5-5------------|
Bb|--2-2--5-5--5-5--3-3--|
 F|--2-2--3-3--5-5--3-3--|
 G|--0-0-------3-3--1-1--|


- Hey guys enjoy! I'll update it more later on due to the lack of time in study hall... haha
Tap to rate this tab
# A B C D E F G H I J K L M N O P Q R S T U V W X Y Z