Song name
# A B C D E F G H I J K L M N O P Q R S T U V W X Y Z

Cold - Stupid Girl Acoustic tab

Tuning Is Drop C with the G string tuned an extra step down.

D|-----------------------|-------------------------|
A|-----------------------|-------------------------|
 |------0----------------|------0---------0-----0--|
c|----0---0-------0-----0|----0---0-----0-----0----|X3
G|--0-------0---0-----0--|--0-------0-1-----0------|
C|0-----------2-----3----|0------------------------|


"I cant take this...?"
 |---------------------------|---------------------------|
 |---------------------------|---------------------------|
 |---------------------------|---------------------------|
 |-0---0-0--0--2-2-2--3-3-3--|-0---0-0--0--8-8-8--7-7-7--|X3
 |-0---0-0--0--2-2-2--3-3-3--|-0---0-0--0--8-8-8--7-7-7--|
 |-0---0-0--0--2-2-2--3-3-3--|-0---0-0--0--8-8-8--7-7-7--|


"She's going away..."
 |-------------------------------------------------------------------------------------------------|
 |-------------------------------------------------------------------------------------------------|
 |------4-----------4-----------8-----------8-----------2-----------2------------------------------|
 |----0---0-------0---0-------9---9-------9---9-------2---2-------2---2-------0-2-0-------0-2-0----|
 |--0-------0---0-------0---9-------9---9-------9---2-------2---2-------2---0-------0---0-------0--|
 |5-----------5-----------9-----------9-----------2-----------2-----------0-----------0-----------0|
X2


It Then Just repeats the same stuff until this part...

 |----------------------------------------------------------------------|
 |----------------------------------------------------------------------|
 |-9-9-9---11--11--11--12--12--12---7--7--7---11--11--11---12--12--12---|
 |-7-7-7---9---9---9---10--10--10---5--5--5---9---9---9----10--10--10---|
 |-5-5-5---7---7---7---8---8---8----3--3--3---7---7---7----8---8---8----|
 |----------------------------------------------------------------------|

 |----------------------------------------------------------------------|
 |----------------------------------------------------------------------|
 |---------11--11--11--12--12--12------------11--11--11---12--12--12----|
 |-8-8-8---9---9---9---10--10--10----7-7-7---9---9---9----10--10--10----|
 |-8-8-8---7---7---7---8---8---8-----7-7-7---7---7---7----8---8---8-----|
 |-8-8-8-----------------------------7-7-7------------------------------|
Tap to rate this tab
 
# A B C D E F G H I J K L M N O P Q R S T U V W X Y Z