Song name
# A B C D E F G H I J K L M N O P Q R S T U V W X Y Z

Cold - The Crossroads tab

Song: The Crossroads
Artist: Cold
Tabbed by: grubs_r_good
Tuning: C (C F Bb Eb G c) Down 2 whole steps

Intro x2

Guitar 1

c -----------------------------------------------------------------|
G -----------------------------------------------------------------|
Eb ------------------------------5--5-5----8-8-8-8-8-8-8-8-8-8-8-8-|
Bb -5--5-5-----7--7-7---8--8-8---5--5-5----8-8-8-8-8-8-8-8-8-8-8-8-|
F --5--5-5-----7--7-7---8--8-8---3--3-3----6-6-6-6-6-6-6-6-6-6-6-6-|
C --3--3-3-----5--5-5---6--6-6-------------------------------------|

Guitar 2

c ---------------11-11-11-11-11-11-11-11-11-11-11-11-|
G --------11-13--------------------------------------|
Eb -12-14--------------------------------------------|
Bb --------------------------------------------------|
F ---------------------------------------------------|
C ---------------------------------------------------|

Verse 1 x4 (Took you away from your world...)

Guitar 1

c ------------------------------------------|
G ------------------------------------------|
Eb -----------------8-8-8-8-8-8-8-8-8-8-8-8-|
Bb -----------------8-8-8-8-8-8-8-8-8-8-8-8-|
F --------------3---6-6-6-6-6-6-6-6-6-6-6-6-|
C --3---5---6-------------------------------|

Chorus 1 x2 (I don't want to be alone...)

Guitar 1

c --------------------------------------------------|
G --------------------------------------------------|
Eb -5--5-5-5-----8--8-8-8---------------------------|
Bb -5--5-5-5-----8--8-8-8-----8--8-8-8-----5--5-5-5-|
F --3--3-3-3-----6--6-6-8-----8--8-8-8-----5--5-5-5-|
C ----------------------------6--6-6-6-----3--3-3-3-|

Intro x1

Verse 2 x4 (Take me for all that you can...)

Chorus 2 (I don't want to be alone...)

Guitar 1 x4

c --------------------------------------------------|
G --------------------------------------------------|
Eb -5--5-5-5-----8--8-8-8---------------------------|
Bb -5--5-5-5-----8--8-8-8-----8--8-8-8-----5--5-5-5-|
F --3--3-3-3-----6--6-6-8-----8--8-8-8-----5--5-5-5-|
C ----------------------------6--6-6-6-----3--3-3-3-|

Guitar 2 x2 (you can hear this part during the repeat of the chorus)

c ---------------------------------------------------------------------------|
G ------13-15-16-15-13----13-15-16-15-13----13-15-16-15-13----13-15-16-15-13-|
Eb --15----------------15----------------15----------------15----------------|
Bb --------------------------------------------------------------------------|
F ---------------------------------------------------------------------------|
C ---------------------------------------------------------------------------|

Bridge x2

Guitar 1

c -----------------------------------------------------------------|
G -----------------------------------------------------------------|
Eb ------------------------------5--5-5----8-8-8-8-8-8-8-8-8-8-8-8-|
Bb -5--5-5-----7--7-7---8--8-8---5--5-5----8-8-8-8-8-8-8-8-8-8-8-8-|
F --5--5-5-----7--7-7---8--8-8---3--3-3----6-6-6-6-6-6-6-6-6-6-6-6-|
C --3--3-3-----5--5-5---6--6-6-------------------------------------|

Guitar 2
c ---------------11-11-11-11-11-11-11-11-11-11-11-11-|
G --------11-13--------------------------------------|
Eb -12-14--------------------------------------------|
Bb --------------------------------------------------|
F ---------------------------------------------------|
C ---------------------------------------------------|

c --18-17---13--------18-18-18-18-18-18-18-18-18-18-18-18-|
G ---------------15---------------------------------------|
Eb -------------------------------------------------------|
Bb -------------------------------------------------------|
F --------------------------------------------------------|
C --------------------------------------------------------|

Chorus 3 x4 (I don't want to be alone...)

Guitar 1

c --------------------------------------------------|
G --------------------------------------------------|
Eb -5--5-5-5-----8--8-8-8---------------------------|
Bb -5--5-5-5-----8--8-8-8-----8--8-8-8-----5--5-5-5-|
F --3--3-3-3-----6--6-6-8-----8--8-8-8-----5--5-5-5-|
C ----------------------------6--6-6-6-----3--3-3-3-|

Guitar 2

c ---------------------------------------------------------------------------|
G ------13-15-16-15-13----13-15-16-15-13----13-15-16-15-13----13-15-16-15-13-|
Eb --15----------------15----------------15----------------15----------------|
Bb --------------------------------------------------------------------------|
F ---------------------------------------------------------------------------|
C ---------------------------------------------------------------------------|

Outro

Guitar 1 x2

c -----------------------------------------------------------------|
G -----------------------------------------------------------------|
Eb ------------------------------5--5-5----8-8-8-8-8-8-8-8-8-8-8-8-|
Bb -5--5-5-----7--7-7---8--8-8---5--5-5----8-8-8-8-8-8-8-8-8-8-8-8-|
F --5--5-5-----7--7-7---8--8-8---3--3-3----6-6-6-6-6-6-6-6-6-6-6-6-|
C --3--3-3-----5--5-5---6--6-6-------------------------------------|

Guitar 1 x1

c ---------------------------------------|
G ---------------------------------------|
Eb -------------------------5--7--5----8-|
Bb -5555----7777----8888----5--7--5----8-|~Let it ring out
F --5555----7777----8888----3--5--3----6-|
C --3333----5555----6666-----------------|

Guitar 2 x2

c --18-17---13--------15-15-15-15-15-15-15-15-15-15-15-15-|
G ---------------15---------------------------------------|
Eb -------------------------------------------------------|
Bb -------------------------------------------------------|
F --------------------------------------------------------|
C --------------------------------------------------------|

Guitar 2 x1

c --18181818--17171717--13131313------13-------18-|~ring it out good yo
G --------------------------------15------15------|
Eb -----------------------------------------------|
Bb -----------------------------------------------|
F ------------------------------------------------|
C ------------------------------------------------|


And that is the song. Fairy simple to learn, just play with the song a few times and you 
will get the rhythm.
Tap to rate this tab
# A B C D E F G H I J K L M N O P Q R S T U V W X Y Z