Song name
# A B C D E F G H I J K L M N O P Q R S T U V W X Y Z

Cold - Flight Of The Superstar tab

Hi everyone, here's my Flight Of The Superstar solo tab, from Cold's last album 
"Superfiction". I hope I'll get to figure out the tab for the whole song so stay 
tuned for updates!

Played in C Tuning (C F Bb Eb G C)

C |------------------------------------------|
G |------------------------------------------|
Eb|------------------------------------------|
Bb|-12-12-12-10-10-8-8-7-7-8-8-8-8-8-7-7-----| x2
F |------------------------------------------|
C |------------------------------------------|

C |-----------------------------------------------------|
G |-----------------------------------------------------|
Eb|-----------------------------------------------------|
Bb|-12-12-12-10-10-10-13-13-13-12-12-12-12-12-----------|
F |-------------------------------------------12-12-----|
C |-----------------------------------------------------|

C |------------------------------------------|
G |------------------------------------------|
Eb|------------------------------------------|
Bb|-12-12-12-10-10-8-8-7-7-8-8-8-8-8---------|
F |------------------------------------------|
C |------------------------------------------|
Tap to rate this tab
 
# A B C D E F G H I J K L M N O P Q R S T U V W X Y Z