Song name
# A B C D E F G H I J K L M N O P Q R S T U V W X Y Z

Cold - Outerspace tab

Intro
Eb|-0-7-8-7------0-7-8-7-10-8-7-8------------|
Bb|------------------------------------------|
Gb|------------------------------------------|
Db|------------------------------------------|
Ab|------------------------------------------|
Db|------------------------------------------|

Chorus
Eb|------------------------------------------|
Bb|------------------------------------------|
Gb|------------------------------------------|
Db|-11-9-7-6---------------------------------|
Ab|-11-9-7-6---------------------------------|
Db|-11-9-7-6---------------------------------|

Bridge
Eb|------------------------------------------|
Bb|------------------------------------------|
Gb|------------------------------------------|
Db|------------------------------------------|
Ab|-9-11-12-----9-11-12-11-------------------|
Db|------------------------------------------|

Right after the bridge Scooter says "I wanna go home." During that I believe the guitar goes:
Eb|------------------------------------------|
Bb|------------------------------------------|
Gb|------------------------------------------|
Db|-11-14-7-6--------------------------------|
Ab|-11-14-7-6--------------------------------|
Db|-11-14-7-6--------------------------------|you decide

tough song.
Tap to rate this tab
# A B C D E F G H I J K L M N O P Q R S T U V W X Y Z