Guitaretab - guitar tabs
Song name
# A B C D E F G H I J K L M N O P Q R S T U V W X Y Z

Cold - End Of The World Acoustic tab

Tabbed by Richard Amerson Aka Kaininmich
Tuning Standard 
Capo 1st fret

For us Cold Fans who donít wanna detune with that floppy sound.. use a capo and
we can PLAY IT IN STANDARD !!! YAY
Listen to song for rythym

Intro
Fm A# G#
Fm G# D#sus2

Verse x2
Fm A# G#
Fm G# D#sus2

Pre-Chorus x2
Fm A# G#
Fm G# D#sus2
[ Tab from: http://www.guitaretab.com/c/cold/37185.html ]
Then
Fm A# G#
Fm--------then this lick
--------------------------|
--------------------------|
------------------0-------|
---------5------0---0-----|
------2-------------------|
---3--------2--------0----|


Chorus 
Fm G# C# C---x2

then
---------------------------------|
---------------------------------|
--------0------0--0h1p0-----0----|
----------2-------------2--------|
------2------2-------------------|
----0---------------------0------|


Verse 

Chorus 

Break Down 
Fm G# C# C---x2

Chorus
(srike them once each (listen to song for the rythym)
Fm G# C# C
Then
(Normal)
Fm G# C# C

Another Verse Thing 
Fm G# C# C---x2

End on C

Related for End Of The World Acoustic tab