Song name
# A B C D E F G H I J K L M N O P Q R S T U V W X Y Z

Cold - The Day Seattle Died tab

Help us improve GuitareTab! Take a short survey!
The Day Seattle Died by Cold
from the album "Year of the Spider"

This song is tyte,about kurt cobain and layne staley,frontment of the grunge bands 
and Alice in Chains.

Tuning:Standard (Tune thickest string to E,then next to A,D,G,B and thinnest to also E)

I had a little help from the site with the header "Spread the Cold"....ill post the link in the comments
of this tab as i cant find it right now

Thankyou,anonymous webmaster :P!


Cold plays in the tuning 2 steps down(i.e thickest string C then F,A#,D#,G and C) but i
made this for standard for anyone who doesnt want to go through the hassle of tuning...


Intro
|-----------------------------------|------------------------------------------------|------------|
|--------------6----------------6--6|--------------6---------------------3-3---------|--------8v--|
|--3-5-5---6-----6-5--6--6----------|--3-5-5---6-----6-5--6--6---5-5-----------------|----3-------|
|-----------------------------------|------------------------------------------------|------------|
|-----------------------------------|------------------------------------------------|------------|
|-----------------------------------|------------------------------------------------|------------|


Verse

Same thing as the intro:
|-----------------------------------|------------------------------------------------|------------|
|--------------6----------------6--6|--------------6---------------------3-3---------|--------8v--|
|--3-5-5---6-----6-5--6--6----------|--3-5-5---6-----6-5--6--6---5-5-----------------|----3-------|
|-----------------------------------|------------------------------------------------|------------|
|-----------------------------------|------------------------------------------------|------------|
|-----------------------------------|------------------------------------------------|------------|


Chorus                                                    p.m. during chorus

They play powerchords but in the song it doesnt seem like a complete powerchord so i omitted
the final 3rd note in the powerchord....if it doesnt work for you,use the complete form of
a power chord i.e the X13XXX will become X133xx

|----------------------------------------------|------------------------------------|
|----------------------------------------------|------------------------------------|
|----------------------------------------------|----8--8---8v---8v--8v--8-----------|
|--3-3-3-3---6--6--6--6------------------------|------------------------------------|
|--1-1-1-1---4--4--4--4--6--6--6--6---4-4-4-4--|------------------------------------|
|------------------------4--4--4--4---2-2-2-2--|------------------------------------|

Bridge
|----------8---------8-----------8-------------|
|-------8----8----8-----8----11----11----------|
|-------8----8----8-----8----11----11----------|
|----8--------8------------8-----------8-------|
|----------------------------------------------|
|----------------------------------------------|
|----------------------------------------------|

|-----8----------13----------11----------13----------11----------8----------|
|-11----11----11----11----11----11----11----11----11----11----8-----8-------|
|-----------8-----------8-----------8----------8----------8-----------8-----|
|---------------------------------------------------------------------------|
|---------------------------------------------------------------------------|
|---------------------------------------------------------------------------|

|-----8-------8---------8-------------------11----------------11-----------|
|--8-----8------11--------11-------11--8-11----11----11--8-11----11--------|
|----------8--------8---------8--8-----------------8-----------------------|
|--------------------------------------------------------------------------|
|--------------------------------------------------------------------------|
|--------------------------------------------------------------------------|

|-------------------------------------|
|-------------------------------------|
|-5---5-------------------------------|
|-3-6-3-------------------------------|
|---4---------------------------------|
|-------------------------------------|

Outro (fades out VERY slowly)
|-----------------------------------|------------------------------------------------|------------|
|--------------6----------------6--6|--------------6---------------------3-3---------|--------8v--|
|--3-5-5---6-----6-5--6--6----------|--3-5-5---6-----6-5--6--6---5-5-----------------|----3-------|
|-----------------------------------|------------------------------------------------|------------|
|-----------------------------------|------------------------------------------------|------------|
|-----------------------------------|------------------------------------------------|------------|

Song Format:

Intro(X2)
Verse
Chorus
Verse
Chorus (its a bit longer but its a repeat)
Bridge
Chorus (same length as the 2d chorus)
Outro
Related for The Day Seattle Died tab