Song name
# A B C D E F G H I J K L M N O P Q R S T U V W X Y Z

Cold - Kill The Music Industry tab

Help us improve GuitareTab! Take a short survey!
Band: Cold
Song: Kill The Music Industry
Album: Year Of The Spider

Tuning: 2 Steps Down (C F Bb Eb G C)

Palm Mute = *

RIFF 1                         x2
|--------------------------------| 
|--------------------------------|
|--------------------------------|
|---------5-5------------5-5-----|
|-3-3-2-2-3-3-5--3-3-2-2-3-3-5-5-|
|-1-1-0-0-----3--1-1-0-0-----3-3-| 

RIFF 2                         x4
|--------------------------------| 
|--------------------------------|
|--------------------------------|
|---------5-5------------5-5-----|
|-3-3-2-2-3-3-5--3-3-2-2-3-3-5-5-|
|-1-1-0-0-----3--1-1-0-0-----3-3-| (Lift up on PM towards end of 4th time)
  * * * * * * *  * * * * * * * *


RIFF 1 x4


CHORUS                                                          x2
|-----------------------------------------------------------------|
|-----------------------------------------------------------------|
|-----------------------------------------------------------------|
|---------------------------------3-3-3-3-3-3-3-3-2-2-2-2-2-2-2-2-|
|-7-7-7-7-7-7-7-7-5-5-5-5-5-5-5-5-1-1-1-1-1-1-1-1-0-0-0-0-0-0-0-0-|
|-5-5-5-5-5-5-5-5-3-3-3-3-3-3-3-3---------------------------------|


RIFF 1 x2


RIFF 2 x4


CHORUS x2


After CHORUS 2nd Time 
|----|
|----|
|----|
|-7~-|
|-5~-|


*BREAK* (Other Guitar Plays Some Leads)


CHORUS x4


RIFF 1 x4
Related for Kill The Music Industry tab