Song name
# A B C D E F G H I J K L M N O P Q R S T U V W X Y Z

Cold - Sad Happy Acoustic tab

Tuning: 2 whole steps down to: C F Bb Eb G C

Intro/Verse
C--------------------------------------------------------------------|
G------3-------3-------3-------3-------3-------3-------3-------3-----|
Eb---4---4---4---4---4---4---4---4---4---4---4---4---4---4---4---4---|
Bb-2-------2-------0-------0-----------------------------------------|
F----------------------------------3-------3-------0-------0---------|
C--------------------------------------------------------------------|

 CHORUS CHORDS:

Fmaj9 G Asus2 C
--0---3---0---0--|
--0---3---0---1--|
--2---0---2---0--|
--3---0---2---2--|
--3---2---0---3--|
------3----------|
Tap to rate this tab
# A B C D E F G H I J K L M N O P Q R S T U V W X Y Z