Guitaretab - guitar tabs
Song name
# A B C D E F G H I J K L M N O P Q R S T U V W X Y Z

Coldfusion - Living Lie tab

Ok so now I have found the mistakes I had on here so now that they are fixed this song
is completely 100% correct instead of 99.9%. Anyway, Coldfusion is a new band attempting
to make it big. They have plenty of publicity from performing in areas of; Nevada,
California, and Arizona. I saw them here in Tucson, Arizona, and I liked their music
that I had to buy their CD. Well, this is Living Lie by them; it's my second favorite
song by them. My favorite song by them is Pain of Tragedy, that I'll tab later. Well
enjoy!

Tuning Drop D: e,B,G,D,A,D

Guitar 1-Lead Guitar
Guitar 2-Rythym Guitar

Intro
Guitar 1

e|--------------------------------------------------------------------------------------------------|
B|--------------------------------------------------------------------------------------------------|
G|-------------------19-19-19-17-17-17-17-17--------------------19-19-19-17-17-17-17-17-------------|
D|-15-15-15-13-13-13-19-19-19-17-17-17-17-17--15-15-15-13-13-13-17-17-17-15-15-15-15-15-------------|
A|-15-15-15-13-13-13-17-17-17-15-15-15-15-15--15-15-15-13-13-13-17-17-17-15-15-15-15-15-------------|
D|-15-15-15-13-13-13--------------------------15-15-15-13-13-13-------------------------------------|

e|--------------------------------------------------------------------------------------------------|
B|--------------------------------------------------------------------------------------------------|
G|-------------------19-19-19-17-17-17-17-17--------------------19-19-19-17-17-17-17-17-------------|
D|-15-15-15-13-13-13-19-19-19-17-17-17-17-17--15-15-15-13-13-13-17-17-17-15-15-15-15-15-------------|
A|-15-15-15-13-13-13-17-17-17-15-15-15-15-15--15-15-15-13-13-13-17-17-17-15-15-15-15-15-------------|
D|-15-15-15-13-13-13--------------------------15-15-15-13-13-13-------------------------------------|

Guitar 2

e|--------------------------------------------------------------------------------------------------|
B|--------------------------------------------------------------------------------------------------|
G|--------------------------------------------------------------------------------------------------|
D|-15-13/2------------------------------------15-13/2-----------------------------------------------|
A|-15-13/2------------------------------------15-13/2-----------------------------------------------|
D|-15-13/2------------------------------------15-13/2-----------------------------------------------|

Guitar 1

e|--------------------------------------------------------------------------------------------------|
B|--------------------------------------------------------------------------------------------------|
G|-------------------19-19-19-17-17-17-17-17--------------------19-19-19-17-17-17-17-17-------------|
D|-15-15-15-13-13-13-19-19-19-17-17-17-17-17--15-15-15-13-13-13-17-17-17-15-15-15-15-15-------------|
A|-15-15-15-13-13-13-17-17-17-15-15-15-15-15--15-15-15-13-13-13-17-17-17-15-15-15-15-15-------------|
D|-15-15-15-13-13-13--------------------------15-15-15-13-13-13-------------------------------------|

Guitar 2

e|--------------------------------------------------------------------------------------------------|
B|--------------------------------------------------------------------------------------------------|
G|--------------------------------------------------------------------------------------------------|
D|-15-13/2--------3-3-3-1-1-1-----------------15~~--------------------------------------------------|
A|-15-13/2--------3-3-3-1-1-1-----------------15~~--------------------------------------------------|
D|-15-13/2--------3-3-3-1-1-1-----------------15~~--------------------------------------------------|
                  *    PM   * 
Guitar 1 

e|--------------------------------------------------------------------------------------------------|
B|--------------------------------------------------------------------------------------------------|
G|-------------------19-19-19-17-17-17-17-17--------------------------------------------------------|
D|-15-15-15-13-13-13-19-19-19-17-17-17-17-17--------------------------------------------------------|
A|-15-15-15-13-13-13-17-17-17-15-15-15-15-15--------------------------------------------------------|
D|-15-15-15-13-13-13--------------------------------------------------------------------------------|

Riff
Both Guitars

e|--------------------------------------------------------------------------------------------------|
B|--------------------------------------------------------------------------------------------------|
G|--------------------------------------------------------------------------------------------------|
D|-3--1--3--0-0-0--3--1--3--0-0-0-0-0--3--1--3--0-0-0--3--1--3--0-0-0-------------------------------|
A|-3--1--3--0-0-0--3--1--3--0-0-0-0-0--3--1--3--0-0-0--3--1--3--0-0-0-------------------------------|
D|-3--1--3--0-0-0--3--1--3--0-0-0-0-0--3--1--3--0-0-0--3--1--3--0-0-0-------------------------------|
                              * PM*

Pre-Verse 1
Guitar 1

e|--------------------------------------------------------------------------------------------------|
B|--------------------------------------------------------------------------------------------------|
G|--------------------------------------------------------------------------------------------------|
D|---15-15---13-13--10-11-12-11-9---15-15---13-13--10-11-12-11-9---15-15---13-13--10-11-12-11-9-----|
A|--------------------------------------------------------------------------------------------------|
D|--------------------------------------------------------------------------------------------------|

Guitar 2

e|--------------------------------------------------------------------------------------------------|
B|--------------------------------------------------------------------------------------------------|
G|--------------------------------------------------------------------------------------------------|
D|-3-------1----------------------3-------1----------------------3-------1--------------------------|
A|--------------------------------------------------------------------------------------------------|
D|--------------------------------------------------------------------------------------------------|

Guitar 1

e|--------------------------------------------------------------------------------------------------|
B|--------------------------------------------------------------------------------------------------|
G|--------------------------------------------------------------------------------------------------|
D|-3--5--6-5-4-3------------------------------------------------------------------------------------|
A|--------------------------------------------------------------------------------------------------|
D|--------------------------------------------------------------------------------------------------|

Verse

Guitar 1
              (x4)                 
e|------------------------------|-------------------------------------------------------------------|
B|------------------------------|-------------------------------------------------------------------|
G|------------------------------|-------------------------------------------------------------------|
D|-15-15--13-13--10-11-12-11-9--|--10-11-12-12b-----------------------------------------------------|
A|------------------------------|-------------------------------------------------------------------|
D|------------------------------|-------------------------------------------------------------------|

Guitar 1
              (x3)                 
e|------------------------------|-------------------------------------------------------------------|
B|------------------------------|-------------------------------------------------------------------|
G|------------------------------|-------------------------------------------------------------------|
D|-15-15--13-13--10-11-12-11-9--|-15-15-15-13-13-13-15-15-15--15------------------------------------|
A|------------------------------|-------------------------------------------------------------------|
D|------------------------------|-------------------------------------------------------------------|

Guitar 2

e-|-------------------------------------------------------------------------------------------------|
B-|-------------------------------------------------------------------------------------------------|
G-|---------------------------------------------------------x-x-x-----------------------------------|
D-|---------------------------------------------------------x-x-x-----------------------------------|
A-|---------------------------------------------------------x-x-x-----------------------------------|
D-|---------------------------------------------------------x-x-x-----------------------------------|

Chorus 
Both Guitars
[ Tab from: http://www.guitaretab.com/c/coldfusion/57503.html ]
e|--------------------------------------------------------------------------------------------------|
B|--------------------------------------------------------------------------------------------------|
G|--------------------------------------------------------------------------------------------------|
D|-3--1--3--0-0-0--3--1--3--0-0-0-0-0--3--1--3--0-0-0--3--1--3--0-0-0-------------------------------|
A|-3--1--3--0-0-0--3--1--3--0-0-0-0-0--3--1--3--0-0-0--3--1--3--0-0-0-------------------------------|
D|-3--1--3--0-0-0--3--1--3--0-0-0-0-0--3--1--3--0-0-0--3--1--3--0-0-0-------------------------------|
                              * PM*

e|--------------------------------------------------------------------------------------------------|
B|--------------------------------------------------------------------------------------------------|
G|--------------------------------------------------------------------------------------------------|
D|-x-x-x-x-3--3--1--3--0-0-0---3-3-3-3-3-3~~~-------------------------------------------------------|
A|-x-x-x-x-3--3--1--3--0-0-0---3-3-3-3-3-3~~~-------------------------------------------------------|
D|-x-x-x-x-3--3--1--3--0-0-0---3-3-3-3-3-3~~~-------------------------------------------------------|

Pre-Verse 2
Guitar 1

e|--------------------------------------------------------------------------------------------------|
B|--------------------------------------------------------------------------------------------------|
G|--------------------------------------------------------------------------------------------------|
D|---15-15---13-13--10-11-12-11-9---15-15---13-13--10-11-12-11-9---15-15---13-13--10-11-12-11-9-----|
A|--------------------------------------------------------------------------------------------------|
D|--------------------------------------------------------------------------------------------------|

Guitar 2

e|--------------------------------------------------------------------------------------------------|
B|--------------------------------------------------------------------------------------------------|
G|--------------------------------------------------------------------------------------------------|
D|-3-------1----------------------3-------1----------------------3-------1--------------------------|
A|--------------------------------------------------------------------------------------------------|
D|--------------------------------------------------------------------------------------------------|

Guitar 1

e|--------------------------------------------------------------------------------------------------|
B|--------------------------------------------------------------------------------------------------|
G|--------------------------------------------------------------------------------------------------|
D|-3--5--6------------------------------------------------------------------------------------------|
A|--------------------------------------------------------------------------------------------------|
D|--------------------------------------------------------------------------------------------------|

Verse

Guitar 1
              (x4)                 
e|------------------------------|-------------------------------------------------------------------|
B|------------------------------|-------------------------------------------------------------------|
G|------------------------------|-------------------------------------------------------------------|
D|-15-15--13-13--10-11-12-11-9--|--10-11-12-12b-----------------------------------------------------|
A|------------------------------|-------------------------------------------------------------------|
D|------------------------------|-------------------------------------------------------------------|

Guitar 1
              (x3)                 
e|------------------------------|-------------------------------------------------------------------|
B|------------------------------|-------------------------------------------------------------------|
G|------------------------------|-------------------------------------------------------------------|
D|-15-15--13-13--10-11-12-11-9--|-15-15-15-13-13-13-15-15-15--15------------------------------------|
A|------------------------------|-------------------------------------------------------------------|
D|------------------------------|-------------------------------------------------------------------|

Guitar 2

e-|-------------------------------------------------------------------------------------------------|
B-|-------------------------------------------------------------------------------------------------|
G-|---------------------------------------------------------x-x-x-----------------------------------|
D-|---------------------------------------------------------x-x-x-----------------------------------|
A-|---------------------------------------------------------x-x-x-----------------------------------|
D-|---------------------------------------------------------x-x-x-----------------------------------|

Chorus
Both Guitars

e|--------------------------------------------------------------------------------------------------|
B|--------------------------------------------------------------------------------------------------|
G|--------------------------------------------------------------------------------------------------|
D|-3--1--3--0-0-0--3--1--3--0-0-0-0-0--3--1--3--0-0-0--3--1--3--0-0-0-------------------------------|
A|-3--1--3--0-0-0--3--1--3--0-0-0-0-0--3--1--3--0-0-0--3--1--3--0-0-0-------------------------------|
D|-3--1--3--0-0-0--3--1--3--0-0-0-0-0--3--1--3--0-0-0--3--1--3--0-0-0-------------------------------|
                              * PM*

e|--------------------------------------------------------------------------------------------------|
B|--------------------------------------------------------------------------------------------------|
G|--------------------------------------------------------------------------------------------------|
D|-x-x-x-x-3--3--1--3--0-0-0---3-3-3-3-3-3~~~-------------------------------------------------------|
A|-x-x-x-x-3--3--1--3--0-0-0---3-3-3-3-3-3~~~-------------------------------------------------------|
D|-x-x-x-x-3--3--1--3--0-0-0---3-3-3-3-3-3~~~-------------------------------------------------------|

Solo
Guitar 1

e|--------------------------------------------------------------------------------------------------|
B|--------------------------------------------------------------------------------------------------|
G|-----------------------7-9-9-10-10b--13-12-10--13-12-10--13-12-10--10/9-9/8--8b-------------------|
D|-3-5-7-5--5-7-9-7--7-9----------------------------------------------------------------------------|
A|--------------------------------------------------------------------------------------------------|
D|--------------------------------------------------------------------------------------------------|

e|-11---11-11-11-11-13--16-15-13--16-15-13--16-15-13------------------------------------------------|
B|--------------------------------------------------------------------------------------------------|
G|--------------------------------------------------------------------------------------------------|
D|--------------------------------------------------------------------------------------------------|
A|--------------------------------------------------------------------------------------------------|
D|--------------------------------------------------------------------------------------------------|

e|-11-11-11-11-11-13--16-15-13--16-15-13--16-15-13--------------------------------------------------|
B|--------------------------------------------------------------------------------------------------|
G|--------------------------------------------------------------------------------------------------|
D|-------------------------------------------------17-17-17-15-15-12--------------------------------|
A|-------------------------------------------------17-17-17-15-15-12--------------------------------|
D|-------------------------------------------------17-17-17-15-15-12--------------------------------|

Outro
Both Guitars

e|--------------------------------------------------------------------------------------------------|
B|--------------------------------------------------------------------------------------------------|
G|--------------------------------------------------------------------------------------------------|
D|-3---0---2---0--1--3---0---2---0--1--x-x-x-x-3---0---2---0--1--x-x-x-x-3--------------------------|
A|-3---0---2---0--1--3---0---2---0--1--x-x-x-x-3---0---2---0--1--x-x-x-x-3--------------------------|
D|-3---0---2---0--1--3---0---2---0--1--x-x-x-x-3---0---2---0--1--x-x-x-x-3--------------------------|

e|--------------------------------------------------------------------------------------------------|
B|--------------------------------------------------------------------------------------------------|
G|--------------------------------------------------------------------------------------------------|
D|-0---2---0--1--x-x-x-x-3--0---2---0--1--x-x-x-x-3--0---2---1-1-1-2-2-2-3-3-3-3--------------------|
A|-0---2---0--1--x-x-x-x-3--0---2---0--1--x-x-x-x-3--0---2---1-1-1-2-2-2-3-3-3-3--------------------|
D|-0---2---0--1--x-x-x-x-3--0---2---0--1--x-x-x-x-3--0---2---1-1-1-2-2-2-3-3-3-3--------------------|
                                                             *       PM      *

e|--------------------------------------------------------------------------------------------------|
B|--------------------------------------------------------------------------------------------------|
G|--------------------------------------------------------------------------------------------------|
D|-0---2---0--1--x-x-x-3--0---2---0--1--3~~~--------------------------------------------------------|
A|-0---2---0--1--x-x-x-3--0---2---0--1--3~~~--------------------------------------------------------|
D|-0---2---0--1--x-x-x-3--0---2---0--1--3~~~--------------------------------------------------------|
Related for Living Lie tab