Song name
# A B C D E F G H I J K L M N O P Q R S T U V W X Y Z

Coldplay - Speed Of Sound Acoustic tab

Title: Speed of Sound
Artist: ColdPlay
Tab By: hail tanner (Tanner A.)
Tuning: Standard
Difficulty: Easy

Being mostly an acoustic guitarist, I found this out just by experimenting. This is 
played on the piano, but I find it sounds better on the guitar. This part is played 
the entire song.


E-----------0-------------0---------------0-----------------0---------|
B--------------3--------------3----------------3-----------------3----|
G---2--2----------2--2------------0--0------------0--0----------------|
D---------------------------------------------------------------------|
A---------------------------------------------------------------------|
E---------------------------------------------------------------------|

E----------------------------------------------------------------------|
B----------------------------------------------------------------------|
G----------------------------------------------------------------------|
D----4--4--------------------------------------------------------------|
A----------------------------------------------------------------------|
E----------------------------------------------------------------------|


I find it best if fingers are placed like this, entire time, except when you lift your 
finger in the middle of the song:
    1st fret      2nd fret      3rd fret      4th fret     5th fret      6th fret
E l----------l----------l----------l----------l----------l-----------l-------|
B l----------l----------l------3---l----------l----------l-----------l-------|
G l----------l-----1----l----------l----------l----------l-----------l-------|
D l----------l----------l----------l----4-----l----------l-----------l-------|
A l----------l----------l----------l----------l----------l-----------l-------|
E l----------l----------l----------l----------l----------l-----------l-------|
1=First Finger, 2=Second finger, etc.

Hope this Helps! Enjoy!                                                 -Tanner
Tap to rate this tab
 
# A B C D E F G H I J K L M N O P Q R S T U V W X Y Z